  0
SECTION
  2
HEADER
  9
$ACADVER
  1
AC1014
  9
$ACADMAINTVER
 70
     0
  9
$DWGCODEPAGE
  3
DOS932
  9
$INSBASE
 10
0.0
 20
0.0
 30
0.0
  9
$EXTMIN
 10
18.0
 20
7.0
 30
0.0
  9
$EXTMAX
 10
402.0
 20
289.0
 30
0.0
  9
$LIMMIN
 10
0.0
 20
0.0
  9
$LIMMAX
 10
420.0
 20
297.0
  9
$ORTHOMODE
 70
     0
  9
$REGENMODE
 70
     1
  9
$FILLMODE
 70
     1
  9
$QTEXTMODE
 70
     0
  9
$MIRRTEXT
 70
     1
  9
$DRAGMODE
 70
     2
  9
$LTSCALE
 40
1.0
  9
$OSMODE
 70
     0
  9
$ATTMODE
 70
     1
  9
$TEXTSIZE
 40
0.2
  9
$TRACEWID
 40
0.05
  9
$TEXTSTYLE
  7
STANDARD
  9
$CLAYER
  8
図面枠レイヤ
  9
$CELTYPE
  6
CONTINUOUS
  9
$CECOLOR
 62
   256
  9
$CELTSCALE
 40
1.0
  9
$DELOBJ
 70
     1
  9
$DISPSILH
 70
     0
  9
$DIMSCALE
 40
1.0
  9
$DIMASZ
 40
0.18
  9
$DIMEXO
 40
0.0625
  9
$DIMDLI
 40
0.38
  9
$DIMRND
 40
0.0
  9
$DIMDLE
 40
0.0
  9
$DIMEXE
 40
0.18
  9
$DIMTP
 40
0.0
  9
$DIMTM
 40
0.0
  9
$DIMTXT
 40
0.18
  9
$DIMCEN
 40
0.09
  9
$DIMTSZ
 40
0.0
  9
$DIMTOL
 70
     0
  9
$DIMLIM
 70
     0
  9
$DIMTIH
 70
     1
  9
$DIMTOH
 70
     1
  9
$DIMSE1
 70
     0
  9
$DIMSE2
 70
     0
  9
$DIMTAD
 70
     0
  9
$DIMZIN
 70
     0
  9
$DIMBLK
  1

  9
$DIMASO
 70
     1
  9
$DIMSHO
 70
     1
  9
$DIMPOST
  1

  9
$DIMAPOST
  1

  9
$DIMALT
 70
     0
  9
$DIMALTD
 70
     2
  9
$DIMALTF
 40
25.4
  9
$DIMLFAC
 40
1.0
  9
$DIMTOFL
 70
     0
  9
$DIMTVP
 40
0.0
  9
$DIMTIX
 70
     0
  9
$DIMSOXD
 70
     0
  9
$DIMSAH
 70
     0
  9
$DIMBLK1
  1

  9
$DIMBLK2
  1

  9
$DIMSTYLE
  2
STANDARD
  9
$DIMCLRD
 70
     0
  9
$DIMCLRE
 70
     0
  9
$DIMCLRT
 70
     0
  9
$DIMTFAC
 40
1.0
  9
$DIMGAP
 40
0.09
  9
$DIMJUST
 70
     0
  9
$DIMSD1
 70
     0
  9
$DIMSD2
 70
     0
  9
$DIMTOLJ
 70
     1
  9
$DIMTZIN
 70
     0
  9
$DIMALTZ
 70
     0
  9
$DIMALTTZ
 70
     0
  9
$DIMFIT
 70
     3
  9
$DIMUPT
 70
     0
  9
$DIMUNIT
 70
     2
  9
$DIMDEC
 70
     4
  9
$DIMTDEC
 70
     4
  9
$DIMALTU
 70
     2
  9
$DIMALTTD
 70
     2
  9
$DIMTXSTY
  7
STANDARD
  9
$DIMAUNIT
 70
     0
  9
$LUNITS
 70
     2
  9
$LUPREC
 70
     4
  9
$SKETCHINC
 40
0.1
  9
$FILLETRAD
 40
0.0
  9
$AUNITS
 70
     0
  9
$AUPREC
 70
     0
  9
$MENU
  1
acad
  9
$ELEVATION
 40
0.0
  9
$PELEVATION
 40
0.0
  9
$THICKNESS
 40
0.0
  9
$LIMCHECK
 70
     0
  9
$BLIPMODE
 70
     1
  9
$CHAMFERA
 40
0.0
  9
$CHAMFERB
 40
0.0
  9
$CHAMFERC
 40
0.0
  9
$CHAMFERD
 40
0.0
  9
$SKPOLY
 70
     0
  9
$TDCREATE
 40
2453886.858882303
  9
$TDUPDATE
 40
2453886.858882303
  9
$TDINDWG
 40
0.0000000000
  9
$TDUSRTIMER
 40
0.0000000000
  9
$USRTIMER
 70
     1
  9
$ANGBASE
 50
0.0
  9
$ANGDIR
 70
     0
  9
$PDMODE
 70
     0
  9
$PDSIZE
 40
0.0
  9
$PLINEWID
 40
0.0
  9
$COORDS
 70
     1
  9
$SPLFRAME
 70
     0
  9
$SPLINETYPE
 70
     6
  9
$SPLINESEGS
 70
     8
  9
$ATTDIA
 70
     0
  9
$ATTREQ
 70
     1
  9
$HANDLING
 70
     1
  9
$HANDSEED
  5
80C
  9
$SURFTAB1
 70
     6
  9
$SURFTAB2
 70
     6
  9
$SURFTYPE
 70
     6
  9
$SURFU
 70
     6
  9
$SURFV
 70
     6
  9
$UCSNAME
  2

  9
$UCSORG
 10
0.0
 20
0.0
 30
0.0
  9
$UCSXDIR
 10
1.0
 20
0.0
 30
0.0
  9
$UCSYDIR
 10
0.0
 20
1.0
 30
0.0
  9
$PUCSNAME
  2

  9
$PUCSORG
 10
0.0
 20
0.0
 30
0.0
  9
$PUCSXDIR
 10
1.0
 20
0.0
 30
0.0
  9
$PUCSYDIR
 10
0.0
 20
1.0
 30
0.0
  9
$USERI1
 70
     0
  9
$USERI2
 70
     0
  9
$USERI3
 70
     0
  9
$USERI4
 70
     0
  9
$USERI5
 70
     0
  9
$USERR1
 40
0.0
  9
$USERR2
 40
0.0
  9
$USERR3
 40
0.0
  9
$USERR4
 40
0.0
  9
$USERR5
 40
0.0
  9
$WORLDVIEW
 70
     1
  9
$SHADEDGE
 70
     3
  9
$SHADEDIF
 70
    70
  9
$TILEMODE
 70
     1
  9
$MAXACTVP
 70
    16
  9
$PINSBASE
 10
0.0
 20
0.0
 30
0.0
  9
$PLIMCHECK
 70
     0
  9
$PEXTMIN
 10
1.000000E+20
 20
1.000000E+20
 30
1.000000E+20
  9
$PEXTMAX
 10
-1.000000E+20
 20
-1.000000E+20
 30
-1.000000E+20
  9
$PLIMMIN
 10
0.0
 20
0.0
  9
$PLIMMAX
 10
12.0
 20
9.0
  9
$UNITMODE
 70
     0
  9
$VISRETAIN
 70
     0
  9
$PLINEGEN
 70
     1
  9
$PSLTSCALE
 70
     0
  9
$TREEDEPTH
 70
  3020
  9
$PICKSTYLE
 70
     1
  9
$CMLSTYLE
  2
Standard
  9
$CMLJUST
 70
     0
  9
$CMLSCALE
 40
1.0
  9
$PROXYGRAPHICS
 70
     0
  9
$MEASUREMENT
 70
     0
  0
ENDSEC
  0
SECTION
  2
CLASSES
  0
CLASS
  1
LWPOLYLINE
  2
AcDbPolyline
  3
"AutoCAD"
 90
        0
280
     0
281
     1
  0
CLASS
  1
IMAGE
  2
AcDbRasterImage
  3
ISM
 90
      127
280
     0
281
     1
  0
CLASS
  1
OLE2FRAME
  2
AcDbOle2Frame
  3
""
 90
        0
280
     0
281
     1
  0
CLASS
  1
HATCH
  2
AcDbHatch
  3
"ACAD_SEDONA"
 90
        0
280
     0
281
     1
  0
CLASS
  1
DICTIONARYVAR
  2
AcDbDictionaryVar
  3
"AutoCAD"
 90
        0
280
     0
281
     0
  0
CLASS
  1
RASTERVARIABLES
  2
AcDbRasterVariables
  3
ISM
 90
        0
280
     0
281
     0
  0
CLASS
  1
IMAGEDEF
  2
AcDbRasterImageDef
  3
ISM
 90
        0
280
     0
281
     0
  0
CLASS
  1
IMAGEDEF_REACTOR
  2
AcDbRasterImageDefReactor
  3
ISM
 90
        1
280
     0
281
     0
  0
CLASS
  1
IDBUFFER
  2
AcDbIdBuffer
  3
"Acad"
 90
        0
280
     0
281
     0
  0
CLASS
  1
SPATIAL_FILTER
  2
AcDbSpatialFilter
  3
"Acad"
 90
        0
280
     0
281
     0
  0
CLASS
  1
XRECORD
  2
AcDbXrecord
  3
"<Built In>"
 90
        0
280
     0
281
     0
  0
CLASS
  1
SORTENTSTABLE
  2
AcDbSortentsTable
  3
"AutoCAD"
 90
        0
280
     0
281
     0
  0
CLASS
  1
LAYER_INDEX
  2
AcDbLayerIndex
  3
"Acad"
 90
        0
280
     0
281
     0
  0
CLASS
  1
SPATIAL_INDEX
  2
AcDbSpatialIndex
  3
"Acad"
 90
        0
280
     0
281
     0
  0
CLASS
  1
OBJECT_PTR
  2
CAseDLPNTableRecord
  3
"ASE-LPNTableRecord"
 90
        1
280
     0
281
     0
  0
CLASS
  1
LAYOUT
  2
AcDbLayout
  3
"AutoCAD 2000"
 90
        1
280
     0
281
     0
  0
CLASS
  1
PLOTSETTINGS
  2
AcDbPlotSettings
  3
"AutoCAD 2000"
 90
        1
280
     0
281
     0
  0
CLASS
  1
ACDBDICTIONARYWDFLT
  2
AcDbDictionaryWithDefault
  3
"AutoCAD 2000"
 90
        1
280
     0
281
     0
  0
CLASS
  1
ACDBPLACEHOLDER
  2
AcDbPlaceHolder
  3
"AutoCAD 2000"
 90
        1
280
     0
281
     0
  0
CLASS
  1
VBA_PROJECT
  2
AcDbVbaProject
  3
"acadvba"
 90
        1
280
     0
281
     0
  0
CLASS
  1
WIPEOUT
  2
AcDbWipeout
  3
WipeOut|AutoCAD Express Tool|expresstools@autodesk.com
 90
      127
280
     0
281
     1
  0
CLASS
  1
WIPEOUTVARIABLES
  2
AcDbWipeoutVariables
  3
WipeOut|AutoCAD Express Tool|expresstools@autodesk.com
 90
        0
280
     0
281
     0
  0
CLASS
  1
RTEXT
  2
RText
  3
RText|AutoCAD Express Tool|expresstools@autodesk.com
 90
        0
280
     0
281
     1
  0
CLASS
  1
ARCALIGNEDTEXT
  2
AcDbArcAlignedText
  3
ATEXT|AutoCAD Express Tool|expresstools@autodesk.com
 90
        0
280
     0
281
     1
  0
ENDSEC
  0
SECTION
  2
TABLES
  0
TABLE
  2
VPORT
  5
7
100
AcDbSymbolTable
 70
     1
  0
VPORT
  5
15
100
AcDbSymbolTableRecord
100
AcDbViewportTableRecord
  2
*ACTIVE
 70
     0
 10
0.0
 20
0.0
 11
1.0
 21
1.0
 12
210.0
 22
148.0
 13
0.0
 23
0.0
 14
1.0
 24
1.0
 15
0.0
 25
0.0
 16
0.0
 26
0.0
 36
1.0
 17
0.0
 27
0.0
 37
0.0
 40
282.0
 41
1.722533
 42
50.0
 43
0.0
 44
0.0
 50
0.0
 51
0.0
 71
     0
 72
   100
 73
     1
 74
     1
 75
     0
 76
     0
 77
     0
 78
     0
  0
ENDTAB
  0
TABLE
  2
LTYPE
  5
4
100
AcDbSymbolTable
 70
     9
  0
LTYPE
  5
11
100
AcDbSymbolTableRecord
100
AcDbLinetypeTableRecord
  2
BYBLOCK
 70
    64
  3

 72
    65
 73
     0
 40
0.0
  0
LTYPE
  5
12
100
AcDbSymbolTableRecord
100
AcDbLinetypeTableRecord
  2
BYLAYER
 70
    64
  3

 72
    65
 73
     0
 40
0.0
  0
LTYPE
  5
13
100
AcDbSymbolTableRecord
100
AcDbLinetypeTableRecord
  2
CONTINUOUS
 70
    64
  3
実線
 72
    65
 73
     0
 40
0.0
  0
LTYPE
  5
1D
100
AcDbSymbolTableRecord
100
AcDbLinetypeTableRecord
  2
EXLTYPE1
 70
    64
  3
破線
 72
    65
 73
     2
 40
4.0
 49
3.0
 74
     0
 49
-1.0
 74
     0
  0
LTYPE
  5
1E
100
AcDbSymbolTableRecord
100
AcDbLinetypeTableRecord
  2
EXLTYPE2
 70
    64
  3
点線
 72
    65
 73
     2
 40
2.0
 49
1.0
 74
     0
 49
-1.0
 74
     0
  0
LTYPE
  5
1F
100
AcDbSymbolTableRecord
100
AcDbLinetypeTableRecord
  2
EXLTYPE3
 70
    64
  3
一点鎖線
 72
    65
 73
     4
 40
33.0
 49
30.0
 74
     0
 49
-1.0
 74
     0
 49
1.0
 74
     0
 49
-1.0
 74
     0
  0
LTYPE
  5
20
100
AcDbSymbolTableRecord
100
AcDbLinetypeTableRecord
  2
EXLTYPE4
 70
    64
  3
二点鎖線
 72
    65
 73
     6
 40
35.0
 49
30.0
 74
     0
 49
-1.0
 74
     0
 49
1.0
 74
     0
 49
-1.0
 74
     0
 49
1.0
 74
     0
 49
-1.0
 74
     0
  0
LTYPE
  5
21
100
AcDbSymbolTableRecord
100
AcDbLinetypeTableRecord
  2
EXLTYPE5
 70
    64
  3
三点鎖線
 72
    65
 73
     8
 40
37.0
 49
30.0
 74
     0
 49
-1.0
 74
     0
 49
1.0
 74
     0
 49
-1.0
 74
     0
 49
1.0
 74
     0
 49
-1.0
 74
     0
 49
1.0
 74
     0
 49
-1.0
 74
     0
  0
LTYPE
  5
22
100
AcDbSymbolTableRecord
100
AcDbLinetypeTableRecord
  2
EXLTYPE6
 70
    64
  3
四点鎖線
 72
    65
 73
    10
 40
39.0
 49
30.0
 74
     0
 49
-1.0
 74
     0
 49
1.0
 74
     0
 49
-1.0
 74
     0
 49
1.0
 74
     0
 49
-1.0
 74
     0
 49
1.0
 74
     0
 49
-1.0
 74
     0
 49
1.0
 74
     0
 49
-1.0
 74
     0
  0
ENDTAB
  0
TABLE
  2
LAYER
  5
2
100
AcDbSymbolTable
 70
     9
  0
LAYER
  5
14
100
AcDbSymbolTableRecord
100
AcDbLayerTableRecord
  2
0
 70
     0
 62
     7
  6
CONTINUOUS
  0
LAYER
  5
25
100
AcDbSymbolTableRecord
100
AcDbLayerTableRecord
  2
基本作図レイヤ
 70
    64
 62
     7
  6
CONTINUOUS
  0
LAYER
  5
26
100
AcDbSymbolTableRecord
100
AcDbLayerTableRecord
  2
中心線レイヤ
 70
    64
 62
     1
  6
EXLTYPE3
  0
LAYER
  5
27
100
AcDbSymbolTableRecord
100
AcDbLayerTableRecord
  2
寸法線レイヤ
 70
    64
 62
     1
  6
CONTINUOUS
  0
LAYER
  5
28
100
AcDbSymbolTableRecord
100
AcDbLayerTableRecord
  2
補助線レイヤ
 70
    64
 62
     3
  6
CONTINUOUS
  0
LAYER
  5
29
100
AcDbSymbolTableRecord
100
AcDbLayerTableRecord
  2
風船レイヤ
 70
    64
 62
     1
  6
CONTINUOUS
  0
LAYER
  5
2A
100
AcDbSymbolTableRecord
100
AcDbLayerTableRecord
  2
図面枠レイヤ
 70
    64
 62
     7
  6
CONTINUOUS
  0
LAYER
  5
2B
100
AcDbSymbolTableRecord
100
AcDbLayerTableRecord
  2
公差表レイヤ
 70
    65
 62
     4
  6
CONTINUOUS
  0
LAYER
  5
2C
100
AcDbSymbolTableRecord
100
AcDbLayerTableRecord
  2
訂正欄レイヤ
 70
    64
 62
     4
  6
CONTINUOUS
  0
ENDTAB
  0
TABLE
  2
STYLE
  5
3
100
AcDbSymbolTable
 70
     3
  0
STYLE
  5
17
100
AcDbSymbolTableRecord
100
AcDbTextStyleTableRecord
  2
STANDARD
 70
     0
 40
0.0
 41
1.0
 50
0.0
 71
     0
 42
0.0
  3
monotxt
  4
extfont
  0
STYLE
  5
23
100
AcDbSymbolTableRecord
100
AcDbTextStyleTableRecord
  2
EXCADSTD
 70
    64
 40
0.0
 41
1.0
 50
0.0
 71
     0
 42
0.2
  3
monotxt
  4
extfont
  0
STYLE
  5
24
100
AcDbSymbolTableRecord
100
AcDbTextStyleTableRecord
  2
EXCADVERT
 70
    68
 40
0.0
 41
1.0
 50
0.0
 71
     0
 42
0.286885
  3
monotxt
  4
extfont
  0
ENDTAB
  0
TABLE
  2
VIEW
  5
5
100
AcDbSymbolTable
 70
     0
  0
ENDTAB
  0
TABLE
  2
UCS
  5
6
100
AcDbSymbolTable
 70
     0
  0
ENDTAB
  0
TABLE
  2
APPID
  5
8
100
AcDbSymbolTable
 70
     1
  0
APPID
  5
16
100
AcDbSymbolTableRecord
100
AcDbRegAppTableRecord
  2
ACAD
 70
     0
  0
ENDTAB
  0
TABLE
  2
DIMSTYLE
  5
9
100
AcDbSymbolTable
 70
     1
  0
DIMSTYLE
105
18
100
AcDbSymbolTableRecord
100
AcDbDimStyleTableRecord
  2
STANDARD
 70
     0
  3

  4

  5

  6

  7

 40
1.0
 41
0.18
 42
0.0625
 43
0.38
 44
0.18
 45
0.0
 46
0.0
 47
0.0
 48
0.0
 71
     0
 72
     0
 73
     1
 74
     1
 75
     0
 76
     0
 77
     0
 78
     0
140
0.18
141
0.09
142
0.0
143
25.4
144
1.0
145
0.0
146
1.0
147
0.09
170
     0
171
     2
172
     1
173
     0
174
     0
175
     0
176
     0
177
     0
178
     0
270
     2
271
     4
272
     4
273
     2
274
     2
275
     0
280
     0
281
     0
282
     0
283
     1
284
     0
285
     0
286
     0
287
     0
288
     0
340
17
  0
ENDTAB
  0
TABLE
  2
BLOCK_RECORD
  5
1
100
AcDbSymbolTable
 70
    18
  0
BLOCK_RECORD
  5
A
100
AcDbSymbolTableRecord
100
AcDbBlockTableRecord
  2
*MODEL_SPACE
  0
BLOCK_RECORD
  5
B
100
AcDbSymbolTableRecord
100
AcDbBlockTableRecord
  2
*PAPER_SPACE
  0
BLOCK_RECORD
  5
2D
100
AcDbSymbolTableRecord
100
AcDbBlockTableRecord
  2
_EX_NORM
  0
BLOCK_RECORD
  5
2E
100
AcDbSymbolTableRecord
100
AcDbBlockTableRecord
  2
_EX_BNORM
  0
BLOCK_RECORD
  5
2F
100
AcDbSymbolTableRecord
100
AcDbBlockTableRecord
  2
_EX_BCIR
  0
BLOCK_RECORD
  5
30
100
AcDbSymbolTableRecord
100
AcDbBlockTableRecord
  2
_EX_RCIVIL
  0
BLOCK_RECORD
  5
31
100
AcDbSymbolTableRecord
100
AcDbBlockTableRecord
  2
_EX_SLANT
  0
BLOCK_RECORD
  5
32
100
AcDbSymbolTableRecord
100
AcDbBlockTableRecord
  2
_EX_NONE
  0
BLOCK_RECORD
  5
33
100
AcDbSymbolTableRecord
100
AcDbBlockTableRecord
  2
_EX_CIVIL
  0
BLOCK_RECORD
  5
34
100
AcDbSymbolTableRecord
100
AcDbBlockTableRecord
  2
_EX_WCIR
  0
BLOCK_RECORD
  5
35
100
AcDbSymbolTableRecord
100
AcDbBlockTableRecord
  2
_EX_WCIR2
  0
BLOCK_RECORD
  5
36
100
AcDbSymbolTableRecord
100
AcDbBlockTableRecord
  2
_EX_WNORM
  0
BLOCK_RECORD
  5
37
100
AcDbSymbolTableRecord
100
AcDbBlockTableRecord
  2
_EX_NNORM
  0
BLOCK_RECORD
  5
38
100
AcDbSymbolTableRecord
100
AcDbBlockTableRecord
  2
_EX_BBOX
  0
BLOCK_RECORD
  5
39
100
AcDbSymbolTableRecord
100
AcDbBlockTableRecord
  2
_EX_WBOX
  0
BLOCK_RECORD
  5
3A
100
AcDbSymbolTableRecord
100
AcDbBlockTableRecord
  2
_EX_INTEGRAL
  0
BLOCK_RECORD
  5
3B
100
AcDbSymbolTableRecord
100
AcDbBlockTableRecord
  2
山田
  0
BLOCK_RECORD
  5
3C
100
AcDbSymbolTableRecord
100
AcDbBlockTableRecord
  2
西野
  0
BLOCK_RECORD
  5
3D
100
AcDbSymbolTableRecord
100
AcDbBlockTableRecord
  2
技術課ＣＭ印
  0
BLOCK_RECORD
  5
3E
100
AcDbSymbolTableRecord
100
AcDbBlockTableRecord
  2
設計Ｌ印
  0
ENDTAB
  0
ENDSEC
  0
SECTION
  2
BLOCKS
  0
BLOCK
  5
D
100
AcDbEntity
  8
0
100
AcDbBlockBegin
  2
*MODEL_SPACE
 70
     0
 10
0.0
 20
0.0
 30
0.0
  3
*MODEL_SPACE
  1

  0
ENDBLK
  5
E
100
AcDbEntity
  8
0
100
AcDbBlockEnd
  0
BLOCK
  5
F
100
AcDbEntity
 67
     1
  8
0
100
AcDbBlockBegin
  2
*PAPER_SPACE
 70
     0
 10
0.0
 20
0.0
 30
0.0
  3
*PAPER_SPACE
  1

  0
ENDBLK
  5
10
100
AcDbEntity
 67
     1
  8
0
100
AcDbBlockEnd
  0
BLOCK
  5
3F
100
AcDbEntity
  8
0
100
AcDbBlockBegin
  2
_EX_NORM
 70
     0
 10
0.0
 20
0.0
 30
0.0
  3
_EX_NORM
  1

  0
LINE
  5
40
100
AcDbEntity
  8
0
  6
CONTINUOUS
 62
     0
100
AcDbLine
 10
0.0
 20
0.0
 30
0.0
 11
-1.0
 21
0.0
 31
0.0
  0
LINE
  5
41
100
AcDbEntity
  8
0
  6
CONTINUOUS
 62
     0
100
AcDbLine
 10
0.0
 20
0.0
 30
0.0
 11
-1.0
 21
0.166667
 31
0.0
  0
LINE
  5
42
100
AcDbEntity
  8
0
  6
CONTINUOUS
 62
     0
100
AcDbLine
 10
0.0
 20
0.0
 30
0.0
 11
-1.0
 21
-0.166667
 31
0.0
  0
ENDBLK
  5
43
100
AcDbEntity
  8
0
100
AcDbBlockEnd
  0
BLOCK
  5
44
100
AcDbEntity
  8
0
100
AcDbBlockBegin
  2
_EX_BNORM
 70
     0
 10
0.0
 20
0.0
 30
0.0
  3
_EX_BNORM
  1

  0
LINE
  5
45
100
AcDbEntity
  8
0
  6
CONTINUOUS
 62
     0
100
AcDbLine
 10
0.0
 20
0.0
 30
0.0
 11
-1.0
 21
0.0
 31
0.0
  0
LINE
  5
46
100
AcDbEntity
  8
0
  6
CONTINUOUS
 62
     0
100
AcDbLine
 10
0.0
 20
0.0
 30
0.0
 11
-1.0
 21
0.166667
 31
0.0
  0
LINE
  5
47
100
AcDbEntity
  8
0
  6
CONTINUOUS
 62
     0
100
AcDbLine
 10
0.0
 20
0.0
 30
0.0
 11
-1.0
 21
-0.166667
 31
0.0
  0
LINE
  5
48
100
AcDbEntity
  8
0
  6
CONTINUOUS
 62
     0
100
AcDbLine
 10
0.0
 20
0.0
 30
0.0
 11
-1.0
 21
0.083333
 31
0.0
  0
LINE
  5
49
100
AcDbEntity
  8
0
  6
CONTINUOUS
 62
     0
100
AcDbLine
 10
0.0
 20
0.0
 30
0.0
 11
-1.0
 21
-0.083333
 31
0.0
  0
LINE
  5
4A
100
AcDbEntity
  8
0
  6
CONTINUOUS
 62
     0
100
AcDbLine
 10
-1.0
 20
0.166667
 30
0.0
 11
-1.0
 21
-0.166667
 31
0.0
  0
ENDBLK
  5
4B
100
AcDbEntity
  8
0
100
AcDbBlockEnd
  0
BLOCK
  5
4C
100
AcDbEntity
  8
0
100
AcDbBlockBegin
  2
_EX_BCIR
 70
     0
 10
0.0
 20
0.0
 30
0.0
  3
_EX_BCIR
  1

  0
LINE
  5
4D
100
AcDbEntity
  8
0
  6
CONTINUOUS
 62
     0
100
AcDbLine
 10
0.0
 20
0.0
 30
0.0
 11
-1.0
 21
0.0
 31
0.0
  0
CIRCLE
  5
4E
100
AcDbEntity
  8
0
  6
CONTINUOUS
 62
     0
100
AcDbCircle
 10
0.0
 20
0.0
 30
0.0
 40
0.5
  0
CIRCLE
  5
4F
100
AcDbEntity
  8
0
  6
CONTINUOUS
 62
     0
100
AcDbCircle
 10
0.0
 20
0.0
 30
0.0
 40
0.25
  0
ENDBLK
  5
50
100
AcDbEntity
  8
0
100
AcDbBlockEnd
  0
BLOCK
  5
51
100
AcDbEntity
  8
0
100
AcDbBlockBegin
  2
_EX_RCIVIL
 70
     0
 10
0.0
 20
0.0
 30
0.0
  3
_EX_RCIVIL
  1

  0
LINE
  5
52
100
AcDbEntity
  8
0
  6
CONTINUOUS
 62
     0
100
AcDbLine
 10
0.0
 20
0.0
 30
0.0
 11
-1.0
 21
0.0
 31
0.0
  0
LINE
  5
53
100
AcDbEntity
  8
0
  6
CONTINUOUS
 62
     0
100
AcDbLine
 10
-1.0
 20
-0.25
 30
0.0
 11
0.0
 21
-0.25
 31
0.0
  0
LINE
  5
54
100
AcDbEntity
  8
0
  6
CONTINUOUS
 62
     0
100
AcDbLine
 10
-1.0
 20
-0.125
 30
0.0
 11
0.0
 21
-0.125
 31
0.0
  0
ENDBLK
  5
55
100
AcDbEntity
  8
0
100
AcDbBlockEnd
  0
BLOCK
  5
56
100
AcDbEntity
  8
0
100
AcDbBlockBegin
  2
_EX_SLANT
 70
     0
 10
0.0
 20
0.0
 30
0.0
  3
_EX_SLANT
  1

  0
LINE
  5
57
100
AcDbEntity
  8
0
  6
CONTINUOUS
 62
     0
100
AcDbLine
 10
0.0
 20
0.0
 30
0.0
 11
-1.0
 21
0.0
 31
0.0
  0
LINE
  5
58
100
AcDbEntity
  8
0
  6
CONTINUOUS
 62
     0
100
AcDbLine
 10
0.707107
 20
0.707107
 30
0.0
 11
-0.707107
 21
-0.707107
 31
0.0
  0
ENDBLK
  5
59
100
AcDbEntity
  8
0
100
AcDbBlockEnd
  0
BLOCK
  5
5A
100
AcDbEntity
  8
0
100
AcDbBlockBegin
  2
_EX_NONE
 70
     0
 10
0.0
 20
0.0
 30
0.0
  3
_EX_NONE
  1

  0
LINE
  5
5B
100
AcDbEntity
  8
0
  6
CONTINUOUS
 62
     0
100
AcDbLine
 10
0.0
 20
0.0
 30
0.0
 11
-1.0
 21
0.0
 31
0.0
  0
ENDBLK
  5
5C
100
AcDbEntity
  8
0
100
AcDbBlockEnd
  0
BLOCK
  5
5D
100
AcDbEntity
  8
0
100
AcDbBlockBegin
  2
_EX_CIVIL
 70
     0
 10
0.0
 20
0.0
 30
0.0
  3
_EX_CIVIL
  1

  0
LINE
  5
5E
100
AcDbEntity
  8
0
  6
CONTINUOUS
 62
     0
100
AcDbLine
 10
0.0
 20
0.0
 30
0.0
 11
-1.0
 21
0.0
 31
0.0
  0
LINE
  5
5F
100
AcDbEntity
  8
0
  6
CONTINUOUS
 62
     0
100
AcDbLine
 10
-1.0
 20
0.25
 30
0.0
 11
0.0
 21
0.25
 31
0.0
  0
LINE
  5
60
100
AcDbEntity
  8
0
  6
CONTINUOUS
 62
     0
100
AcDbLine
 10
-1.0
 20
0.125
 30
0.0
 11
0.0
 21
0.125
 31
0.0
  0
ENDBLK
  5
61
100
AcDbEntity
  8
0
100
AcDbBlockEnd
  0
BLOCK
  5
62
100
AcDbEntity
  8
0
100
AcDbBlockBegin
  2
_EX_WCIR
 70
     0
 10
0.0
 20
0.0
 30
0.0
  3
_EX_WCIR
  1

  0
LINE
  5
63
100
AcDbEntity
  8
0
  6
CONTINUOUS
 62
     0
100
AcDbLine
 10
0.0
 20
0.0
 30
0.0
 11
-1.0
 21
0.0
 31
0.0
  0
CIRCLE
  5
64
100
AcDbEntity
  8
0
  6
CONTINUOUS
 62
     0
100
AcDbCircle
 10
0.0
 20
0.0
 30
0.0
 40
0.5
  0
ENDBLK
  5
65
100
AcDbEntity
  8
0
100
AcDbBlockEnd
  0
BLOCK
  5
66
100
AcDbEntity
  8
0
100
AcDbBlockBegin
  2
_EX_WCIR2
 70
     0
 10
0.0
 20
0.0
 30
0.0
  3
_EX_WCIR2
  1

  0
LINE
  5
67
100
AcDbEntity
  8
0
  6
CONTINUOUS
 62
     0
100
AcDbLine
 10
-0.5
 20
0.0
 30
0.0
 11
-1.0
 21
0.0
 31
0.0
  0
CIRCLE
  5
68
100
AcDbEntity
  8
0
  6
CONTINUOUS
 62
     0
100
AcDbCircle
 10
0.0
 20
0.0
 30
0.0
 40
0.5
  0
ENDBLK
  5
69
100
AcDbEntity
  8
0
100
AcDbBlockEnd
  0
BLOCK
  5
6A
100
AcDbEntity
  8
0
100
AcDbBlockBegin
  2
_EX_WNORM
 70
     0
 10
0.0
 20
0.0
 30
0.0
  3
_EX_WNORM
  1

  0
LINE
  5
6B
100
AcDbEntity
  8
0
  6
CONTINUOUS
 62
     0
100
AcDbLine
 10
-1.0
 20
0.0
 30
0.0
 11
-1.0
 21
0.0
 31
0.0
  0
LINE
  5
6C
100
AcDbEntity
  8
0
  6
CONTINUOUS
 62
     0
100
AcDbLine
 10
0.0
 20
0.0
 30
0.0
 11
-1.0
 21
0.166667
 31
0.0
  0
LINE
  5
6D
100
AcDbEntity
  8
0
  6
CONTINUOUS
 62
     0
100
AcDbLine
 10
0.0
 20
0.0
 30
0.0
 11
-1.0
 21
-0.166667
 31
0.0
  0
LINE
  5
6E
100
AcDbEntity
  8
0
  6
CONTINUOUS
 62
     0
100
AcDbLine
 10
-1.0
 20
0.166667
 30
0.0
 11
-1.0
 21
-0.166667
 31
0.0
  0
ENDBLK
  5
6F
100
AcDbEntity
  8
0
100
AcDbBlockEnd
  0
BLOCK
  5
70
100
AcDbEntity
  8
0
100
AcDbBlockBegin
  2
_EX_NNORM
 70
     0
 10
0.0
 20
0.0
 30
0.0
  3
_EX_NNORM
  1

  0
LINE
  5
71
100
AcDbEntity
  8
0
  6
CONTINUOUS
 62
     0
100
AcDbLine
 10
0.0
 20
0.0
 30
0.0
 11
-1.0
 21
0.0
 31
0.0
  0
LINE
  5
72
100
AcDbEntity
  8
0
  6
CONTINUOUS
 62
     0
100
AcDbLine
 10
0.0
 20
0.0
 30
0.0
 11
-1.0
 21
0.166667
 31
0.0
  0
LINE
  5
73
100
AcDbEntity
  8
0
  6
CONTINUOUS
 62
     0
100
AcDbLine
 10
0.0
 20
0.0
 30
0.0
 11
-1.0
 21
-0.166667
 31
0.0
  0
LINE
  5
74
100
AcDbEntity
  8
0
  6
CONTINUOUS
 62
     0
100
AcDbLine
 10
-1.0
 20
0.166667
 30
0.0
 11
-1.0
 21
-0.166667
 31
0.0
  0
ENDBLK
  5
75
100
AcDbEntity
  8
0
100
AcDbBlockEnd
  0
BLOCK
  5
76
100
AcDbEntity
  8
0
100
AcDbBlockBegin
  2
_EX_BBOX
 70
     0
 10
0.0
 20
0.0
 30
0.0
  3
_EX_BBOX
  1

  0
LINE
  5
77
100
AcDbEntity
  8
0
  6
CONTINUOUS
 62
     0
100
AcDbLine
 10
0.0
 20
0.0
 30
0.0
 11
-1.0
 21
0.0
 31
0.0
  0
LINE
  5
78
100
AcDbEntity
  8
0
  6
CONTINUOUS
 62
     0
100
AcDbLine
 10
-0.5
 20
0.5
 30
0.0
 11
0.5
 21
0.5
 31
0.0
  0
LINE
  5
79
100
AcDbEntity
  8
0
  6
CONTINUOUS
 62
     0
100
AcDbLine
 10
0.5
 20
0.5
 30
0.0
 11
0.5
 21
-0.5
 31
0.0
  0
LINE
  5
7A
100
AcDbEntity
  8
0
  6
CONTINUOUS
 62
     0
100
AcDbLine
 10
0.5
 20
-0.5
 30
0.0
 11
-0.5
 21
-0.5
 31
0.0
  0
LINE
  5
7B
100
AcDbEntity
  8
0
  6
CONTINUOUS
 62
     0
100
AcDbLine
 10
-0.5
 20
-0.5
 30
0.0
 11
-0.5
 21
0.5
 31
0.0
  0
LINE
  5
7C
100
AcDbEntity
  8
0
  6
CONTINUOUS
 62
     0
100
AcDbLine
 10
-0.25
 20
0.25
 30
0.0
 11
0.25
 21
0.25
 31
0.0
  0
LINE
  5
7D
100
AcDbEntity
  8
0
  6
CONTINUOUS
 62
     0
100
AcDbLine
 10
0.25
 20
0.25
 30
0.0
 11
0.25
 21
-0.25
 31
0.0
  0
LINE
  5
7E
100
AcDbEntity
  8
0
  6
CONTINUOUS
 62
     0
100
AcDbLine
 10
0.25
 20
-0.25
 30
0.0
 11
-0.25
 21
-0.25
 31
0.0
  0
LINE
  5
7F
100
AcDbEntity
  8
0
  6
CONTINUOUS
 62
     0
100
AcDbLine
 10
-0.25
 20
-0.25
 30
0.0
 11
-0.25
 21
0.25
 31
0.0
  0
ENDBLK
  5
80
100
AcDbEntity
  8
0
100
AcDbBlockEnd
  0
BLOCK
  5
81
100
AcDbEntity
  8
0
100
AcDbBlockBegin
  2
_EX_WBOX
 70
     0
 10
0.0
 20
0.0
 30
0.0
  3
_EX_WBOX
  1

  0
LINE
  5
82
100
AcDbEntity
  8
0
  6
CONTINUOUS
 62
     0
100
AcDbLine
 10
-0.5
 20
0.0
 30
0.0
 11
-1.0
 21
0.0
 31
0.0
  0
LINE
  5
83
100
AcDbEntity
  8
0
  6
CONTINUOUS
 62
     0
100
AcDbLine
 10
-0.5
 20
0.5
 30
0.0
 11
0.5
 21
0.5
 31
0.0
  0
LINE
  5
84
100
AcDbEntity
  8
0
  6
CONTINUOUS
 62
     0
100
AcDbLine
 10
0.5
 20
0.5
 30
0.0
 11
0.5
 21
-0.5
 31
0.0
  0
LINE
  5
85
100
AcDbEntity
  8
0
  6
CONTINUOUS
 62
     0
100
AcDbLine
 10
0.5
 20
-0.5
 30
0.0
 11
-0.5
 21
-0.5
 31
0.0
  0
LINE
  5
86
100
AcDbEntity
  8
0
  6
CONTINUOUS
 62
     0
100
AcDbLine
 10
-0.5
 20
-0.5
 30
0.0
 11
-0.5
 21
0.5
 31
0.0
  0
ENDBLK
  5
87
100
AcDbEntity
  8
0
100
AcDbBlockEnd
  0
BLOCK
  5
88
100
AcDbEntity
  8
0
100
AcDbBlockBegin
  2
_EX_INTEGRAL
 70
     0
 10
0.0
 20
0.0
 30
0.0
  3
_EX_INTEGRAL
  1

  0
LINE
  5
89
100
AcDbEntity
  8
0
  6
CONTINUOUS
 62
     0
100
AcDbLine
 10
0.0
 20
0.0
 30
0.0
 11
-1.0
 21
0.0
 31
0.0
  0
ARC
  5
8A
100
AcDbEntity
  8
0
  6
CONTINUOUS
 62
     0
100
AcDbCircle
 10
0.542115
 20
0.164992
 30
0.0
 40
0.56667
100
AcDbArc
 50
73.07249
 51
196.927513
  0
ARC
  5
8B
100
AcDbEntity
  8
0
  6
CONTINUOUS
 62
     0
100
AcDbCircle
 10
-0.542115
 20
-0.164992
 30
0.0
 40
0.56667
100
AcDbArc
 50
253.072487
 51
16.927513
  0
ENDBLK
  5
8C
100
AcDbEntity
  8
0
100
AcDbBlockEnd
  0
BLOCK
  5
8D
100
AcDbEntity
  8
0
100
AcDbBlockBegin
  2
山田
 70
     0
 10
0.0
 20
0.0
 30
0.0
  3
山田
  1

  0
CIRCLE
  5
8E
100
AcDbEntity
  8
0
  6
CONTINUOUS
 62
     1
100
AcDbCircle
 10
0.0
 20
0.0
 30
0.0
 40
4.244997
  0
TEXT
  5
8F
100
AcDbEntity
  8
0
  6
CONTINUOUS
 62
     3
100
AcDbText
 10
-2.1
 20
0.2
 30
0.0
 40
3.2
  1
山
 41
1.3125
  7
EXCADSTD
 72
     5
 11
1.9
 21
0.2
 31
0.0
100
AcDbText
  0
TEXT
  5
90
100
AcDbEntity
  8
0
  6
CONTINUOUS
 62
     3
100
AcDbText
 10
-2.1
 20
-3.0
 30
0.0
 40
3.2
  1
田
 41
1.3125
  7
EXCADSTD
 72
     5
 11
1.9
 21
-3.0
 31
0.0
100
AcDbText
  0
ENDBLK
  5
91
100
AcDbEntity
  8
0
100
AcDbBlockEnd
  0
BLOCK
  5
92
100
AcDbEntity
  8
0
100
AcDbBlockBegin
  2
西野
 70
     0
 10
0.0
 20
0.0
 30
0.0
  3
西野
  1

  0
CIRCLE
  5
93
100
AcDbEntity
  8
0
  6
CONTINUOUS
 62
     1
100
AcDbCircle
 10
-0.07
 20
0.1
 30
0.0
 40
4.244997
  0
TEXT
  5
94
100
AcDbEntity
  8
0
  6
CONTINUOUS
 62
     3
100
AcDbText
 10
-2.17
 20
0.3
 30
0.0
 40
3.2
  1
西
 41
1.3125
  7
EXCADSTD
 72
     5
 11
1.83
 21
0.3
 31
0.0
100
AcDbText
  0
TEXT
  5
95
100
AcDbEntity
  8
0
  6
CONTINUOUS
 62
     3
100
AcDbText
 10
-2.17
 20
-2.9
 30
0.0
 40
3.2
  1
野
 41
1.3125
  7
EXCADSTD
 72
     5
 11
1.83
 21
-2.9
 31
0.0
100
AcDbText
  0
ENDBLK
  5
96
100
AcDbEntity
  8
0
100
AcDbBlockEnd
  0
BLOCK
  5
97
100
AcDbEntity
  8
0
100
AcDbBlockBegin
  2
技術課ＣＭ印
 70
     0
 10
0.0
 20
0.0
 30
0.0
  3
技術課ＣＭ印
  1

  0
CIRCLE
  5
98
100
AcDbEntity
  8
0
  6
CONTINUOUS
 62
     1
100
AcDbCircle
 10
0.0
 20
0.0
 30
0.0
 40
4.244997
  0
TEXT
  5
99
100
AcDbEntity
  8
0
  6
CONTINUOUS
 62
     3
100
AcDbText
 10
-2.1
 20
0.2
 30
0.0
 40
3.2
  1
品
 41
1.3125
  7
EXCADSTD
 72
     5
 11
1.9
 21
0.2
 31
0.0
100
AcDbText
  0
TEXT
  5
9A
100
AcDbEntity
  8
0
  6
CONTINUOUS
 62
     3
100
AcDbText
 10
-2.1
 20
-3.0
 30
0.0
 40
3.2
  1
川
 41
1.3125
  7
EXCADSTD
 72
     5
 11
1.9
 21
-3.0
 31
0.0
100
AcDbText
  0
ENDBLK
  5
9B
100
AcDbEntity
  8
0
100
AcDbBlockEnd
  0
BLOCK
  5
9C
100
AcDbEntity
  8
0
100
AcDbBlockBegin
  2
設計Ｌ印
 70
     0
 10
0.0
 20
0.0
 30
0.0
  3
設計Ｌ印
  1

  0
CIRCLE
  5
9D
100
AcDbEntity
  8
0
  6
CONTINUOUS
 62
     1
100
AcDbCircle
 10
0.0
 20
0.0
 30
0.0
 40
4.244997
  0
TEXT
  5
9E
100
AcDbEntity
  8
0
  6
CONTINUOUS
 62
     3
100
AcDbText
 10
-2.1
 20
0.2
 30
0.0
 40
3.2
  1
岩
 41
1.3125
  7
EXCADSTD
 72
     5
 11
1.9
 21
0.2
 31
0.0
100
AcDbText
  0
TEXT
  5
9F
100
AcDbEntity
  8
0
  6
CONTINUOUS
 62
     3
100
AcDbText
 10
-2.1
 20
-3.0
 30
0.0
 40
3.2
  1
本
 41
1.3125
  7
EXCADSTD
 72
     5
 11
1.9
 21
-3.0
 31
0.0
100
AcDbText
  0
ENDBLK
  5
A0
100
AcDbEntity
  8
0
100
AcDbBlockEnd
  0
ENDSEC
  0
SECTION
  2
ENTITIES
  0
TEXT
  5
A1
100
AcDbEntity
  8
基本作図レイヤ
  6
CONTINUOUS
 62
     3
100
AcDbText
 10
57.525713
 20
143.183077
 30
0.0
 40
2.8
  1
約３０５
 50
90.0
 41
0.84
  7
EXCADSTD
 72
     5
 11
57.525713
 21
154.383076
 31
0.0
100
AcDbText
  0
LINE
  5
A2
100
AcDbEntity
  8
基本作図レイヤ
  6
CONTINUOUS
 62
     1
100
AcDbLine
 10
151.832572
 20
82.408013
 30
0.0
 11
152.179418
 21
82.296682
 31
0.0
  0
LINE
  5
A3
100
AcDbEntity
  8
基本作図レイヤ
  6
CONTINUOUS
 62
     1
100
AcDbLine
 10
84.5
 20
72.966025
 30
0.0
 11
59.0
 21
72.966025
 31
0.0
  0
LINE
  5
A4
100
AcDbEntity
  8
基本作図レイヤ
  6
CONTINUOUS
 62
     1
100
AcDbLine
 10
134.5
 20
220.466025
 30
0.0
 11
59.0
 21
220.466025
 31
0.0
  0
LINE
  5
A5
100
AcDbEntity
  8
基本作図レイヤ
  6
CONTINUOUS
 62
     1
100
AcDbLine
 10
59.5
 20
72.966025
 30
0.0
 11
59.5
 21
220.466025
 31
0.0
  0
LINE
  5
A6
100
AcDbEntity
  8
基本作図レイヤ
  6
CONTINUOUS
 62
     1
100
AcDbLine
 10
59.25
 20
74.466025
 30
0.0
 11
59.5
 21
72.966025
 31
0.0
  0
LINE
  5
A7
100
AcDbEntity
  8
基本作図レイヤ
  6
CONTINUOUS
 62
     1
100
AcDbLine
 10
59.5
 20
72.966025
 30
0.0
 11
59.75
 21
74.466025
 31
0.0
  0
LINE
  5
A8
100
AcDbEntity
  8
基本作図レイヤ
  6
CONTINUOUS
 62
     1
100
AcDbLine
 10
59.75
 20
218.966025
 30
0.0
 11
59.5
 21
220.466025
 31
0.0
  0
LINE
  5
A9
100
AcDbEntity
  8
基本作図レイヤ
  6
CONTINUOUS
 62
     1
100
AcDbLine
 10
59.5
 20
220.466025
 30
0.0
 11
59.25
 21
218.966025
 31
0.0
  0
LINE
  5
AA
100
AcDbEntity
  8
基本作図レイヤ
  6
CONTINUOUS
 62
     1
100
AcDbLine
 10
179.5
 20
116.162549
 30
0.0
 11
179.5
 21
235.0
 31
0.0
  0
LINE
  5
AB
100
AcDbEntity
  8
基本作図レイヤ
  6
CONTINUOUS
 62
     1
100
AcDbLine
 10
89.5
 20
116.162549
 30
0.0
 11
89.5
 21
235.0
 31
0.0
  0
TEXT
  5
AC
100
AcDbEntity
  8
基本作図レイヤ
  6
CONTINUOUS
 62
     3
100
AcDbText
 10
127.5
 20
235.0
 30
0.0
 40
2.8
  1
φ
 41
0.84
  7
EXCADSTD
 72
     5
 11
129.74
 21
235.0
 31
0.0
100
AcDbText
  0
TEXT
  5
AD
100
AcDbEntity
  8
基本作図レイヤ
  6
CONTINUOUS
 62
     3
100
AcDbText
 10
130.3
 20
235.0
 30
0.0
 40
2.8
  1
１８０
 41
0.84
  7
EXCADSTD
 72
     5
 11
138.7
 21
235.0
 31
0.0
100
AcDbText
  0
LINE
  5
AE
100
AcDbEntity
  8
基本作図レイヤ
  6
CONTINUOUS
 62
     1
100
AcDbLine
 10
179.5
 20
234.5
 30
0.0
 11
89.5
 21
234.5
 31
0.0
  0
LINE
  5
AF
100
AcDbEntity
  8
基本作図レイヤ
  6
CONTINUOUS
 62
     1
100
AcDbLine
 10
178.0
 20
234.25
 30
0.0
 11
179.5
 21
234.5
 31
0.0
  0
LINE
  5
B0
100
AcDbEntity
  8
基本作図レイヤ
  6
CONTINUOUS
 62
     1
100
AcDbLine
 10
179.5
 20
234.5
 30
0.0
 11
178.0
 21
234.75
 31
0.0
  0
LINE
  5
B1
100
AcDbEntity
  8
基本作図レイヤ
  6
CONTINUOUS
 62
     1
100
AcDbLine
 10
91.0
 20
234.75
 30
0.0
 11
89.5
 21
234.5
 31
0.0
  0
LINE
  5
B2
100
AcDbEntity
  8
基本作図レイヤ
  6
CONTINUOUS
 62
     1
100
AcDbLine
 10
89.5
 20
234.5
 30
0.0
 11
91.0
 21
234.25
 31
0.0
  0
LINE
  5
B3
100
AcDbEntity
  8
基本作図レイヤ
  6
CONTINUOUS
 62
     1
100
AcDbLine
 10
84.5
 20
72.966025
 30
0.0
 11
84.5
 21
21.45
 31
0.0
  0
LINE
  5
B4
100
AcDbEntity
  8
基本作図レイヤ
  6
CONTINUOUS
 62
     1
100
AcDbLine
 10
84.5
 20
21.95
 30
0.0
 11
235.25
 21
21.95
 31
0.0
  0
LINE
  5
B5
100
AcDbEntity
  8
基本作図レイヤ
  6
CONTINUOUS
 62
     1
100
AcDbLine
 10
86.0
 20
22.2
 30
0.0
 11
84.5
 21
21.95
 31
0.0
  0
LINE
  5
B6
100
AcDbEntity
  8
基本作図レイヤ
  6
CONTINUOUS
 62
     1
100
AcDbLine
 10
84.5
 20
21.95
 30
0.0
 11
86.0
 21
21.7
 31
0.0
  0
LINE
  5
B7
100
AcDbEntity
  8
基本作図レイヤ
  6
CONTINUOUS
 62
     1
100
AcDbLine
 10
233.75
 20
21.7
 30
0.0
 11
235.25
 21
21.95
 31
0.0
  0
LINE
  5
B8
100
AcDbEntity
  8
基本作図レイヤ
  6
CONTINUOUS
 62
     1
100
AcDbLine
 10
235.25
 20
21.95
 30
0.0
 11
233.75
 21
22.2
 31
0.0
  0
LINE
  5
B9
100
AcDbEntity
  8
基本作図レイヤ
  6
CONTINUOUS
 62
     1
100
AcDbLine
 10
235.25
 20
72.966025
 30
0.0
 11
235.25
 21
21.45
 31
0.0
  0
TEXT
  5
BA
100
AcDbEntity
  8
基本作図レイヤ
  6
CONTINUOUS
 62
     3
100
AcDbText
 10
143.15
 20
22.45
 30
0.0
 40
2.8
  1
３００±３（パッキン含まず）
 41
0.84
  7
EXCADSTD
 72
     5
 11
182.349999
 21
22.45
 31
0.0
100
AcDbText
  0
LINE
  5
BB
100
AcDbEntity
  8
基本作図レイヤ
  6
CONTINUOUS
 62
     1
100
AcDbLine
 10
143.998928
 20
61.72271
 30
0.0
 11
144.0
 21
56.466025
 31
0.0
  0
LINE
  5
BC
100
AcDbEntity
  8
基本作図レイヤ
  6
CONTINUOUS
 62
     1
100
AcDbLine
 10
125.0
 20
56.466025
 30
0.0
 11
125.0
 21
61.716025
 31
0.0
  0
LINE
  5
BD
100
AcDbEntity
  8
基本作図レイヤ
  6
CONTINUOUS
 62
     1
100
AcDbLine
 10
140.0
 20
72.916025
 30
0.0
 11
140.0
 21
71.716025
 31
0.0
  0
LINE
  5
BE
100
AcDbEntity
  8
基本作図レイヤ
  6
EXLTYPE4
 62
     1
100
AcDbLine
 10
129.0
 20
64.466025
 30
0.0
 11
129.0
 21
51.966025
 31
0.0
  0
LINE
  5
BF
100
AcDbEntity
  8
基本作図レイヤ
  6
EXLTYPE4
 62
     1
100
AcDbLine
 10
130.0
 20
64.466025
 30
0.0
 11
130.0
 21
51.966025
 31
0.0
  0
LINE
  5
C0
100
AcDbEntity
  8
基本作図レイヤ
  6
EXLTYPE4
 62
     1
100
AcDbLine
 10
139.0
 20
64.466025
 30
0.0
 11
139.0
 21
51.966025
 31
0.0
  0
LINE
  5
C1
100
AcDbEntity
  8
基本作図レイヤ
  6
EXLTYPE4
 62
     1
100
AcDbLine
 10
140.0
 20
51.966025
 30
0.0
 11
140.0
 21
64.460844
 31
0.0
  0
LINE
  5
C2
100
AcDbEntity
  8
基本作図レイヤ
  6
EXLTYPE3
 62
     1
100
AcDbLine
 10
129.5
 20
51.966025
 30
0.0
 11
129.5
 21
64.466025
 31
0.0
  0
LINE
  5
C3
100
AcDbEntity
  8
基本作図レイヤ
  6
EXLTYPE3
 62
     1
100
AcDbLine
 10
139.5
 20
51.966025
 30
0.0
 11
139.5
 21
64.466025
 31
0.0
  0
LINE
  5
C4
100
AcDbEntity
  8
基本作図レイヤ
  6
CONTINUOUS
 62
     1
100
AcDbLine
 10
139.55
 20
74.966025
 30
0.0
 11
139.55
 21
72.466025
 31
0.0
  0
LINE
  5
C5
100
AcDbEntity
  8
基本作図レイヤ
  6
EXLTYPE4
 62
     1
100
AcDbLine
 10
140.5
 20
68.716025
 30
0.0
 11
140.5
 21
71.216025
 31
0.0
  0
LINE
  5
C6
100
AcDbEntity
  8
基本作図レイヤ
  6
CONTINUOUS
 62
     1
100
AcDbLine
 10
129.45
 20
74.966025
 30
0.0
 11
129.45
 21
72.466025
 31
0.0
  0
LINE
  5
C7
100
AcDbEntity
  8
基本作図レイヤ
  6
EXLTYPE4
 62
     1
100
AcDbLine
 10
128.5
 20
68.716025
 30
0.0
 11
128.5
 21
71.216025
 31
0.0
  0
LINE
  5
C8
100
AcDbEntity
  8
基本作図レイヤ
  6
CONTINUOUS
 62
     1
100
AcDbLine
 10
129.0
 20
72.916025
 30
0.0
 11
129.0
 21
71.716025
 31
0.0
  0
LINE
  5
C9
100
AcDbEntity
  8
基本作図レイヤ
  6
EXLTYPE4
 62
     1
100
AcDbLine
 10
85.0
 20
95.466025
 30
0.0
 11
92.477523
 21
95.466025
 31
0.0
  0
LINE
  5
CA
100
AcDbEntity
  8
基本作図レイヤ
  6
EXLTYPE4
 62
     1
100
AcDbLine
 10
85.0
 20
87.966025
 30
0.0
 11
92.475895
 21
87.966025
 31
0.0
  0
LINE
  5
CB
100
AcDbEntity
  8
基本作図レイヤ
  6
EXLTYPE4
 62
     1
100
AcDbLine
 10
85.0
 20
57.966025
 30
0.0
 11
92.500624
 21
57.966025
 31
0.0
  0
LINE
  5
CC
100
AcDbEntity
  8
基本作図レイヤ
  6
EXLTYPE4
 62
     1
100
AcDbLine
 10
85.0
 20
50.466025
 30
0.0
 11
92.505254
 21
50.466025
 31
0.0
  0
LINE
  5
CD
100
AcDbEntity
  8
基本作図レイヤ
  6
EXLTYPE3
 62
     1
100
AcDbLine
 10
190.05
 20
72.966025
 30
0.0
 11
154.55
 21
72.966025
 31
0.0
  0
LINE
  5
CE
100
AcDbEntity
  8
基本作図レイヤ
  6
EXLTYPE3
 62
     1
100
AcDbLine
 10
82.988146
 20
91.716025
 30
0.0
 11
95.189317
 21
91.716025
 31
0.0
  0
LINE
  5
CF
100
AcDbEntity
  8
基本作図レイヤ
  6
EXLTYPE3
 62
     1
100
AcDbLine
 10
83.001515
 20
54.216025
 30
0.0
 11
95.189317
 21
54.216025
 31
0.0
  0
LINE
  5
D0
100
AcDbEntity
  8
基本作図レイヤ
  6
CONTINUOUS
 62
     7
100
AcDbLine
 10
67.379266
 20
74.216025
 30
0.0
 11
71.129266
 21
74.216025
 31
0.0
  0
LINE
  5
D1
100
AcDbEntity
  8
基本作図レイヤ
  6
CONTINUOUS
 62
     7
100
AcDbLine
 10
71.129266
 20
74.216025
 30
0.0
 11
71.129266
 21
75.466025
 31
0.0
  0
LINE
  5
D2
100
AcDbEntity
  8
基本作図レイヤ
  6
CONTINUOUS
 62
     7
100
AcDbLine
 10
71.129266
 20
75.466025
 30
0.0
 11
74.879266
 21
72.966025
 31
0.0
  0
LINE
  5
D3
100
AcDbEntity
  8
基本作図レイヤ
  6
CONTINUOUS
 62
     7
100
AcDbLine
 10
74.879266
 20
72.966025
 30
0.0
 11
71.129266
 21
70.466025
 31
0.0
  0
LINE
  5
D4
100
AcDbEntity
  8
基本作図レイヤ
  6
CONTINUOUS
 62
     7
100
AcDbLine
 10
71.129266
 20
70.466025
 30
0.0
 11
71.129266
 21
71.716025
 31
0.0
  0
LINE
  5
D5
100
AcDbEntity
  8
基本作図レイヤ
  6
CONTINUOUS
 62
     7
100
AcDbLine
 10
71.129266
 20
71.716025
 30
0.0
 11
67.379266
 21
71.716025
 31
0.0
  0
LINE
  5
D6
100
AcDbEntity
  8
基本作図レイヤ
  6
CONTINUOUS
 62
     7
100
AcDbLine
 10
67.379266
 20
71.716025
 30
0.0
 11
67.379266
 21
74.216025
 31
0.0
  0
LINE
  5
D7
100
AcDbEntity
  8
基本作図レイヤ
  6
EXLTYPE1
 62
     4
100
AcDbLine
 10
126.25
 20
70.966025
 30
0.0
 11
126.25
 21
58.216025
 31
0.0
  0
LINE
  5
D8
100
AcDbEntity
  8
基本作図レイヤ
  6
EXLTYPE1
 62
     4
100
AcDbLine
 10
126.5
 20
70.966025
 30
0.0
 11
126.5
 21
58.216025
 31
0.0
  0
LINE
  5
D9
100
AcDbEntity
  8
基本作図レイヤ
  6
EXLTYPE1
 62
     4
100
AcDbLine
 10
126.375
 20
70.966025
 30
0.0
 11
126.375
 21
58.216025
 31
0.0
  0
LINE
  5
DA
100
AcDbEntity
  8
基本作図レイヤ
  6
EXLTYPE1
 62
     4
100
AcDbLine
 10
142.75
 20
70.896095
 30
0.0
 11
142.75
 21
58.216025
 31
0.0
  0
LINE
  5
DB
100
AcDbEntity
  8
基本作図レイヤ
  6
EXLTYPE1
 62
     4
100
AcDbLine
 10
142.625
 20
70.929801
 30
0.0
 11
142.625
 21
58.216025
 31
0.0
  0
LINE
  5
DC
100
AcDbEntity
  8
基本作図レイヤ
  6
EXLTYPE1
 62
     4
100
AcDbLine
 10
142.5
 20
70.952272
 30
0.0
 11
142.5
 21
58.216025
 31
0.0
  0
LINE
  5
DD
100
AcDbEntity
  8
基本作図レイヤ
  6
EXLTYPE4
 62
     1
100
AcDbLine
 10
93.792042
 20
109.262549
 30
0.0
 11
93.792042
 21
106.860563
 31
0.0
  0
LINE
  5
DE
100
AcDbEntity
  8
基本作図レイヤ
  6
EXLTYPE4
 62
     1
100
AcDbLine
 10
94.394819
 20
106.512549
 30
0.0
 11
100.694819
 21
106.512549
 31
0.0
  0
LINE
  5
DF
100
AcDbEntity
  8
基本作図レイヤ
  6
EXLTYPE4
 62
     1
100
AcDbLine
 10
101.297595
 20
106.860563
 30
0.0
 11
101.297595
 21
109.262549
 31
0.0
  0
LINE
  5
E0
100
AcDbEntity
  8
基本作図レイヤ
  6
EXLTYPE4
 62
     1
100
AcDbLine
 10
93.792042
 20
106.860563
 30
0.0
 11
94.394819
 21
106.512549
 31
0.0
  0
ARC
  5
E1
100
AcDbEntity
  8
基本作図レイヤ
  6
EXLTYPE4
 62
     1
100
AcDbCircle
 10
97.544819
 20
111.745031
 30
0.0
 40
5.232482
100
AcDbArc
 50
248.985518
 51
291.014482
  0
LINE
  5
E2
100
AcDbEntity
  8
基本作図レイヤ
  6
EXLTYPE4
 62
     1
100
AcDbLine
 10
101.297595
 20
106.860563
 30
0.0
 11
100.694819
 21
106.512549
 31
0.0
  0
ARC
  5
E3
100
AcDbEntity
  8
基本作図レイヤ
  6
EXLTYPE4
 62
     1
100
AcDbCircle
 10
94.394819
 20
109.017051
 30
0.0
 40
2.504502
100
AcDbArc
 50
270.0
 51
300.565895
  0
ARC
  5
E4
100
AcDbEntity
  8
基本作図レイヤ
  6
EXLTYPE4
 62
     1
100
AcDbCircle
 10
100.694819
 20
109.017051
 30
0.0
 40
2.504502
100
AcDbArc
 50
239.434105
 51
270.0
  0
LINE
  5
E5
100
AcDbEntity
  8
基本作図レイヤ
  6
EXLTYPE4
 62
     1
100
AcDbLine
 10
95.66843
 20
109.262549
 30
0.0
 11
95.66843
 21
106.860563
 31
0.0
  0
LINE
  5
E6
100
AcDbEntity
  8
基本作図レイヤ
  6
EXLTYPE4
 62
     1
100
AcDbLine
 10
99.421207
 20
109.262549
 30
0.0
 11
99.421207
 21
106.860563
 31
0.0
  0
LINE
  5
E7
100
AcDbEntity
  8
基本作図レイヤ
  6
CONTINUOUS
 62
     1
100
AcDbLine
 10
131.9735
 20
124.612549
 30
0.0
 11
131.9735
 21
126.512549
 31
0.0
  0
LINE
  5
E8
100
AcDbEntity
  8
基本作図レイヤ
  6
CONTINUOUS
 62
     1
100
AcDbLine
 10
137.0265
 20
124.612549
 30
0.0
 11
137.0265
 21
126.512549
 31
0.0
  0
LINE
  5
E9
100
AcDbEntity
  8
基本作図レイヤ
  6
EXLTYPE4
 62
     1
100
AcDbLine
 10
143.25
 20
114.868212
 30
0.0
 11
144.0
 21
114.435199
 31
0.0
  0
LINE
  5
EA
100
AcDbEntity
  8
基本作図レイヤ
  6
EXLTYPE4
 62
     1
100
AcDbLine
 10
144.0
 20
110.012549
 30
0.0
 11
143.25
 21
110.012549
 31
0.0
  0
LINE
  5
EB
100
AcDbEntity
  8
基本作図レイヤ
  6
EXLTYPE4
 62
     1
100
AcDbLine
 10
144.0
 20
114.435199
 30
0.0
 11
144.0
 21
110.012549
 31
0.0
  0
LINE
  5
EC
100
AcDbEntity
  8
基本作図レイヤ
  6
EXLTYPE4
 62
     1
100
AcDbLine
 10
125.75
 20
114.868212
 30
0.0
 11
125.0
 21
114.435199
 31
0.0
  0
LINE
  5
ED
100
AcDbEntity
  8
基本作図レイヤ
  6
EXLTYPE4
 62
     1
100
AcDbLine
 10
125.0
 20
110.012549
 30
0.0
 11
125.75
 21
110.012549
 31
0.0
  0
LINE
  5
EE
100
AcDbEntity
  8
基本作図レイヤ
  6
EXLTYPE4
 62
     1
100
AcDbLine
 10
125.0
 20
114.435199
 30
0.0
 11
125.0
 21
110.012549
 31
0.0
  0
LINE
  5
EF
100
AcDbEntity
  8
基本作図レイヤ
  6
CONTINUOUS
 62
     1
100
AcDbLine
 10
137.170838
 20
117.762549
 30
0.0
 11
137.5
 21
117.192423
 31
0.0
  0
LINE
  5
F0
100
AcDbEntity
  8
基本作図レイヤ
  6
CONTINUOUS
 62
     1
100
AcDbLine
 10
131.829162
 20
117.762549
 30
0.0
 11
131.5
 21
117.192423
 31
0.0
  0
LINE
  5
F1
100
AcDbEntity
  8
基本作図レイヤ
  6
EXLTYPE4
 62
     1
100
AcDbLine
 10
99.277603
 20
123.887549
 30
0.0
 11
99.277603
 21
123.137549
 31
0.0
  0
LINE
  5
F2
100
AcDbEntity
  8
基本作図レイヤ
  6
EXLTYPE4
 62
     1
100
AcDbLine
 10
98.0
 20
126.100422
 30
0.0
 11
99.277603
 21
123.887549
 31
0.0
  0
LINE
  5
F3
100
AcDbEntity
  8
基本作図レイヤ
  6
EXLTYPE4
 62
     1
100
AcDbLine
 10
99.277603
 20
123.137549
 30
0.0
 11
98.0
 21
120.924677
 31
0.0
  0
LINE
  5
F4
100
AcDbEntity
  8
基本作図レイヤ
  6
EXLTYPE4
 62
     1
100
AcDbLine
 10
102.75633
 20
123.137549
 30
0.0
 11
99.277603
 21
123.137549
 31
0.0
  0
LINE
  5
F5
100
AcDbEntity
  8
基本作図レイヤ
  6
EXLTYPE4
 62
     1
100
AcDbLine
 10
102.888575
 20
123.887549
 30
0.0
 11
99.277603
 21
123.887549
 31
0.0
  0
LINE
  5
F6
100
AcDbEntity
  8
基本作図レイヤ
  6
EXLTYPE4
 62
     1
100
AcDbLine
 10
89.5
 20
116.162549
 30
0.0
 11
89.5
 21
128.762549
 31
0.0
  0
LINE
  5
F7
100
AcDbEntity
  8
基本作図レイヤ
  6
EXLTYPE4
 62
     1
100
AcDbLine
 10
91.25
 20
126.312549
 30
0.0
 11
98.0
 21
126.100422
 31
0.0
  0
LINE
  5
F8
100
AcDbEntity
  8
基本作図レイヤ
  6
EXLTYPE4
 62
     1
100
AcDbLine
 10
89.5
 20
127.762549
 30
0.0
 11
90.75
 21
127.762549
 31
0.0
  0
LINE
  5
F9
100
AcDbEntity
  8
基本作図レイヤ
  6
EXLTYPE4
 62
     1
100
AcDbLine
 10
91.25
 20
126.312549
 30
0.0
 11
90.75
 21
126.812549
 31
0.0
  0
LINE
  5
FA
100
AcDbEntity
  8
基本作図レイヤ
  6
EXLTYPE4
 62
     1
100
AcDbLine
 10
90.75
 20
119.262549
 30
0.0
 11
89.5
 21
119.262549
 31
0.0
  0
LINE
  5
FB
100
AcDbEntity
  8
基本作図レイヤ
  6
EXLTYPE4
 62
     1
100
AcDbLine
 10
98.0
 20
126.100422
 30
0.0
 11
98.0
 21
120.924677
 31
0.0
  0
LINE
  5
FC
100
AcDbEntity
  8
基本作図レイヤ
  6
EXLTYPE4
 62
     1
100
AcDbLine
 10
90.75
 20
120.196836
 30
0.0
 11
91.249753
 21
120.712542
 31
0.0
  0
LINE
  5
FD
100
AcDbEntity
  8
基本作図レイヤ
  6
EXLTYPE4
 62
     1
100
AcDbLine
 10
91.25
 20
126.312549
 30
0.0
 11
91.25
 21
120.712549
 31
0.0
  0
LINE
  5
FE
100
AcDbEntity
  8
基本作図レイヤ
  6
EXLTYPE4
 62
     1
100
AcDbLine
 10
98.0
 20
120.924677
 30
0.0
 11
91.25
 21
120.712549
 31
0.0
  0
LINE
  5
FF
100
AcDbEntity
  8
基本作図レイヤ
  6
EXLTYPE4
 62
     1
100
AcDbLine
 10
90.75
 20
127.762549
 30
0.0
 11
90.75
 21
119.262549
 31
0.0
  0
LINE
  5
100
100
AcDbEntity
  8
基本作図レイヤ
  6
EXLTYPE4
 62
     1
100
AcDbLine
 10
91.325
 20
120.712549
 30
0.0
 11
91.324753
 21
120.712542
 31
0.0
  0
ARC
  5
101
100
AcDbEntity
  8
基本作図レイヤ
  6
EXLTYPE4
 62
     1
100
AcDbCircle
 10
90.0
 20
121.762549
 30
0.0
 40
0.5
100
AcDbArc
 50
90.0
 51
180.0
  0
LINE
  5
102
100
AcDbEntity
  8
基本作図レイヤ
  6
EXLTYPE4
 62
     1
100
AcDbLine
 10
103.014089
 20
124.599374
 30
0.0
 11
101.645708
 21
116.838901
 31
0.0
  0
LINE
  5
103
100
AcDbEntity
  8
基本作図レイヤ
  6
EXLTYPE4
 62
     1
100
AcDbLine
 10
103.506493
 20
125.012549
 30
0.0
 11
106.636472
 21
125.012549
 31
0.0
  0
LINE
  5
104
100
AcDbEntity
  8
基本作図レイヤ
  6
EXLTYPE4
 62
     1
100
AcDbLine
 10
89.75
 20
129.012549
 30
0.0
 11
98.085786
 21
129.012549
 31
0.0
  0
ARC
  5
105
100
AcDbEntity
  8
基本作図レイヤ
  6
EXLTYPE4
 62
     1
100
AcDbCircle
 10
89.75
 20
128.762549
 30
0.0
 40
0.25
100
AcDbArc
 50
90.0
 51
180.0
  0
ARC
  5
106
100
AcDbEntity
  8
基本作図レイヤ
  6
EXLTYPE4
 62
     1
100
AcDbCircle
 10
105.75
 20
128.512549
 30
0.0
 40
0.5
100
AcDbArc
 50
90.0
 51
180.0
  0
LINE
  5
107
100
AcDbEntity
  8
基本作図レイヤ
  6
EXLTYPE4
 62
     1
100
AcDbLine
 10
105.25
 20
128.012549
 30
0.0
 11
105.25
 21
128.512549
 31
0.0
  0
ARC
  5
108
100
AcDbEntity
  8
基本作図レイヤ
  6
EXLTYPE4
 62
     1
100
AcDbCircle
 10
104.25
 20
128.012549
 30
0.0
 40
1.0
100
AcDbArc
 50
270.0
 51
0.0
  0
LINE
  5
109
100
AcDbEntity
  8
基本作図レイヤ
  6
EXLTYPE4
 62
     1
100
AcDbLine
 10
100.989214
 20
127.012549
 30
0.0
 11
104.25
 21
127.012549
 31
0.0
  0
LINE
  5
10A
100
AcDbEntity
  8
基本作図レイヤ
  6
EXLTYPE4
 62
     1
100
AcDbLine
 10
98.792893
 20
128.719656
 30
0.0
 11
100.207107
 21
127.305443
 31
0.0
  0
ARC
  5
10B
100
AcDbEntity
  8
基本作図レイヤ
  6
EXLTYPE4
 62
     1
100
AcDbCircle
 10
100.914214
 20
128.012549
 30
0.0
 40
1.0
100
AcDbArc
 50
225.0
 51
270.0
  0
ARC
  5
10C
100
AcDbEntity
  8
基本作図レイヤ
  6
EXLTYPE4
 62
     1
100
AcDbCircle
 10
98.085786
 20
128.012549
 30
0.0
 40
1.0
100
AcDbArc
 50
45.0
 51
90.0
  0
LINE
  5
10D
100
AcDbEntity
  8
基本作図レイヤ
  6
EXLTYPE4
 62
     1
100
AcDbLine
 10
105.75
 20
129.012549
 30
0.0
 11
113.471136
 21
129.012549
 31
0.0
  0
ARC
  5
10E
100
AcDbEntity
  8
基本作図レイヤ
  6
EXLTYPE2
 62
     1
100
AcDbCircle
 10
103.506493
 20
124.512549
 30
0.0
 40
0.5
100
AcDbArc
 50
90.0
 51
170.0
  0
ARC
  5
10F
100
AcDbEntity
  8
基本作図レイヤ
  6
EXLTYPE2
 62
     1
100
AcDbCircle
 10
95.75
 20
117.012549
 30
0.0
 40
1.0
100
AcDbArc
 50
0.0
 51
90.0
  0
ARC
  5
110
100
AcDbEntity
  8
基本作図レイヤ
  6
EXLTYPE2
 62
     1
100
AcDbCircle
 10
92.5
 20
117.012549
 30
0.0
 40
1.0
100
AcDbArc
 50
90.0
 51
180.0
  0
LINE
  5
111
100
AcDbEntity
  8
基本作図レイヤ
  6
EXLTYPE2
 62
     1
100
AcDbLine
 10
91.5
 20
117.012549
 30
0.0
 11
91.5
 21
116.162549
 31
0.0
  0
LINE
  5
112
100
AcDbEntity
  8
基本作図レイヤ
  6
EXLTYPE2
 62
     1
100
AcDbLine
 10
95.75
 20
118.012549
 30
0.0
 11
92.5
 21
118.012549
 31
0.0
  0
LINE
  5
113
100
AcDbEntity
  8
基本作図レイヤ
  6
EXLTYPE2
 62
     1
100
AcDbLine
 10
96.75
 20
116.162549
 30
0.0
 11
96.75
 21
117.012549
 31
0.0
  0
LINE
  5
114
100
AcDbEntity
  8
基本作図レイヤ
  6
CONTINUOUS
 62
     1
100
AcDbLine
 10
137.5
 20
198.012549
 30
0.0
 11
137.5
 21
187.012549
 31
0.0
  0
LINE
  5
115
100
AcDbEntity
  8
基本作図レイヤ
  6
CONTINUOUS
 62
     1
100
AcDbLine
 10
131.5
 20
198.012549
 30
0.0
 11
131.5
 21
187.012549
 31
0.0
  0
LINE
  5
116
100
AcDbEntity
  8
基本作図レイヤ
  6
EXLTYPE3
 62
     1
100
AcDbLine
 10
128.75
 20
194.618212
 30
0.0
 11
128.75
 21
190.406887
 31
0.0
  0
LINE
  5
117
100
AcDbEntity
  8
基本作図レイヤ
  6
CONTINUOUS
 62
     1
100
AcDbLine
 10
131.0
 20
198.012549
 30
0.0
 11
131.0
 21
187.012549
 31
0.0
  0
LINE
  5
118
100
AcDbEntity
  8
基本作図レイヤ
  6
EXLTYPE2
 62
     1
100
AcDbLine
 10
176.5
 20
120.762549
 30
0.0
 11
173.25
 21
120.762549
 31
0.0
  0
LINE
  5
119
100
AcDbEntity
  8
基本作図レイヤ
  6
EXLTYPE2
 62
     1
100
AcDbLine
 10
177.5
 20
116.162549
 30
0.0
 11
177.5
 21
119.762549
 31
0.0
  0
ARC
  5
11A
100
AcDbEntity
  8
基本作図レイヤ
  6
EXLTYPE2
 62
     1
100
AcDbCircle
 10
173.25
 20
119.762549
 30
0.0
 40
1.0
100
AcDbArc
 50
90.0
 51
180.0
  0
ARC
  5
11B
100
AcDbEntity
  8
基本作図レイヤ
  6
EXLTYPE2
 62
     1
100
AcDbCircle
 10
176.5
 20
119.762549
 30
0.0
 40
1.0
100
AcDbArc
 50
0.0
 51
90.0
  0
LINE
  5
11C
100
AcDbEntity
  8
基本作図レイヤ
  6
EXLTYPE3
 62
     1
100
AcDbLine
 10
140.25
 20
194.618212
 30
0.0
 11
140.25
 21
190.406887
 31
0.0
  0
LINE
  5
11D
100
AcDbEntity
  8
基本作図レイヤ
  6
CONTINUOUS
 62
     1
100
AcDbLine
 10
138.0
 20
198.012549
 30
0.0
 11
138.0
 21
187.012549
 31
0.0
  0
LINE
  5
11E
100
AcDbEntity
  8
基本作図レイヤ
  6
EXLTYPE2
 62
     1
100
AcDbLine
 10
172.25
 20
119.762549
 30
0.0
 11
172.25
 21
116.162549
 31
0.0
  0
LINE
  5
11F
100
AcDbEntity
  8
基本作図レイヤ
  6
CONTINUOUS
 62
     1
100
AcDbLine
 10
131.5
 20
187.012549
 30
0.0
 11
131.5
 21
168.137598
 31
0.0
  0
LINE
  5
120
100
AcDbEntity
  8
基本作図レイヤ
  6
CONTINUOUS
 62
     1
100
AcDbLine
 10
137.5
 20
187.012549
 30
0.0
 11
137.5
 21
168.137598
 31
0.0
  0
LINE
  5
121
100
AcDbEntity
  8
基本作図レイヤ
  6
CONTINUOUS
 62
     1
100
AcDbLine
 10
131.5
 20
212.966025
 30
0.0
 11
131.5
 21
203.553167
 31
0.0
  0
LINE
  5
122
100
AcDbEntity
  8
基本作図レイヤ
  6
CONTINUOUS
 62
     1
100
AcDbLine
 10
137.5
 20
212.966025
 30
0.0
 11
137.5
 21
203.582653
 31
0.0
  0
LINE
  5
123
100
AcDbEntity
  8
基本作図レイヤ
  6
EXLTYPE3
 62
     1
100
AcDbLine
 10
150.442843
 20
143.512549
 30
0.0
 11
158.201915
 21
143.512549
 31
0.0
  0
LINE
  5
124
100
AcDbEntity
  8
基本作図レイヤ
  6
EXLTYPE4
 62
     1
100
AcDbLine
 10
152.351452
 20
142.762549
 30
0.0
 11
155.12287
 21
142.762549
 31
0.0
  0
LINE
  5
125
100
AcDbEntity
  8
基本作図レイヤ
  6
EXLTYPE4
 62
     1
100
AcDbLine
 10
155.079828
 20
144.262549
 30
0.0
 11
152.351452
 21
144.262549
 31
0.0
  0
ARC
  5
126
100
AcDbEntity
  8
基本作図レイヤ
  6
EXLTYPE4
 62
     1
100
AcDbCircle
 10
171.35
 20
123.508048
 30
0.0
 40
2.504502
100
AcDbArc
 50
59.434105
 51
90.0
  0
ARC
  5
127
100
AcDbEntity
  8
基本作図レイヤ
  6
EXLTYPE4
 62
     1
100
AcDbCircle
 10
177.65
 20
123.508048
 30
0.0
 40
2.504502
100
AcDbArc
 50
90.0
 51
120.565895
  0
LINE
  5
128
100
AcDbEntity
  8
基本作図レイヤ
  6
EXLTYPE4
 62
     1
100
AcDbLine
 10
176.376388
 20
122.762549
 30
0.0
 11
176.376388
 21
125.664536
 31
0.0
  0
LINE
  5
129
100
AcDbEntity
  8
基本作図レイヤ
  6
EXLTYPE4
 62
     1
100
AcDbLine
 10
172.75
 20
109.262549
 30
0.0
 11
172.75
 21
122.262549
 31
0.0
  0
LINE
  5
12A
100
AcDbEntity
  8
基本作図レイヤ
  6
EXLTYPE4
 62
     1
100
AcDbLine
 10
172.5
 20
122.262549
 30
0.0
 11
172.5
 21
109.262549
 31
0.0
  0
LINE
  5
12B
100
AcDbEntity
  8
基本作図レイヤ
  6
EXLTYPE4
 62
     1
100
AcDbLine
 10
178.252777
 20
125.664536
 30
0.0
 11
178.252777
 21
122.762549
 31
0.0
  0
LINE
  5
12C
100
AcDbEntity
  8
基本作図レイヤ
  6
EXLTYPE4
 62
     1
100
AcDbLine
 10
120.5
 20
170.965895
 30
0.0
 11
120.5
 21
117.262549
 31
0.0
  0
LINE
  5
12D
100
AcDbEntity
  8
基本作図レイヤ
  6
EXLTYPE4
 62
     1
100
AcDbLine
 10
124.5
 20
170.966025
 30
0.0
 11
124.5
 21
117.262549
 31
0.0
  0
LINE
  5
12E
100
AcDbEntity
  8
基本作図レイヤ
  6
EXLTYPE4
 62
     1
100
AcDbLine
 10
148.5
 20
170.966025
 30
0.0
 11
148.5
 21
117.262549
 31
0.0
  0
LINE
  5
12F
100
AcDbEntity
  8
基本作図レイヤ
  6
EXLTYPE4
 62
     1
100
AcDbLine
 10
144.5
 20
117.262549
 30
0.0
 11
144.5
 21
170.966025
 31
0.0
  0
LINE
  5
130
100
AcDbEntity
  8
基本作図レイヤ
  6
EXLTYPE3
 62
     1
100
AcDbLine
 10
146.5
 20
170.965895
 30
0.0
 11
146.5
 21
116.012549
 31
0.0
  0
LINE
  5
131
100
AcDbEntity
  8
基本作図レイヤ
  6
EXLTYPE3
 62
     1
100
AcDbLine
 10
122.5
 20
170.784051
 30
0.0
 11
122.5
 21
116.012549
 31
0.0
  0
LINE
  5
132
100
AcDbEntity
  8
基本作図レイヤ
  6
EXLTYPE3
 62
     1
100
AcDbLine
 10
120.5
 20
170.966025
 30
0.0
 11
121.0
 21
170.966025
 31
0.0
  0
LINE
  5
133
100
AcDbEntity
  8
基本作図レイヤ
  6
EXLTYPE3
 62
     1
100
AcDbLine
 10
148.0
 20
170.966025
 30
0.0
 11
148.5
 21
170.966025
 31
0.0
  0
LINE
  5
134
100
AcDbEntity
  8
基本作図レイヤ
  6
EXLTYPE4
 62
     1
100
AcDbLine
 10
172.623612
 20
122.762549
 30
0.0
 11
172.623612
 21
125.664536
 31
0.0
  0
LINE
  5
135
100
AcDbEntity
  8
基本作図レイヤ
  6
EXLTYPE4
 62
     1
100
AcDbLine
 10
170.747223
 20
122.762549
 30
0.0
 11
170.747223
 21
125.664536
 31
0.0
  0
LINE
  5
136
100
AcDbEntity
  8
基本作図レイヤ
  6
EXLTYPE4
 62
     1
100
AcDbLine
 10
178.252777
 20
125.664536
 30
0.0
 11
177.65
 21
126.012549
 31
0.0
  0
LINE
  5
137
100
AcDbEntity
  8
基本作図レイヤ
  6
EXLTYPE4
 62
     1
100
AcDbLine
 10
170.747223
 20
109.262549
 30
0.0
 11
170.747223
 21
106.860563
 31
0.0
  0
LINE
  5
138
100
AcDbEntity
  8
基本作図レイヤ
  6
EXLTYPE4
 62
     1
100
AcDbLine
 10
171.35
 20
126.012549
 30
0.0
 11
177.65
 21
126.012549
 31
0.0
  0
ARC
  5
139
100
AcDbEntity
  8
基本作図レイヤ
  6
EXLTYPE4
 62
     1
100
AcDbCircle
 10
174.5
 20
120.780068
 30
0.0
 40
5.232482
100
AcDbArc
 50
68.985518
 51
111.014482
  0
LINE
  5
13A
100
AcDbEntity
  8
基本作図レイヤ
  6
EXLTYPE4
 62
     1
100
AcDbLine
 10
171.35
 20
106.512549
 30
0.0
 11
177.65
 21
106.512549
 31
0.0
  0
LINE
  5
13B
100
AcDbEntity
  8
基本作図レイヤ
  6
EXLTYPE4
 62
     1
100
AcDbLine
 10
178.252777
 20
106.860563
 30
0.0
 11
178.252777
 21
109.262549
 31
0.0
  0
LINE
  5
13C
100
AcDbEntity
  8
基本作図レイヤ
  6
EXLTYPE4
 62
     1
100
AcDbLine
 10
170.747223
 20
106.860563
 30
0.0
 11
171.35
 21
106.512549
 31
0.0
  0
ARC
  5
13D
100
AcDbEntity
  8
基本作図レイヤ
  6
EXLTYPE4
 62
     1
100
AcDbCircle
 10
174.5
 20
111.745031
 30
0.0
 40
5.232482
100
AcDbArc
 50
248.985518
 51
291.014482
  0
LINE
  5
13E
100
AcDbEntity
  8
基本作図レイヤ
  6
EXLTYPE4
 62
     1
100
AcDbLine
 10
178.252777
 20
106.860563
 30
0.0
 11
177.65
 21
106.512549
 31
0.0
  0
LINE
  5
13F
100
AcDbEntity
  8
基本作図レイヤ
  6
EXLTYPE4
 62
     1
100
AcDbLine
 10
170.747223
 20
125.664536
 30
0.0
 11
171.35
 21
126.012549
 31
0.0
  0
ARC
  5
140
100
AcDbEntity
  8
基本作図レイヤ
  6
EXLTYPE4
 62
     1
100
AcDbCircle
 10
171.35
 20
109.017051
 30
0.0
 40
2.504502
100
AcDbArc
 50
270.0
 51
300.565895
  0
ARC
  5
141
100
AcDbEntity
  8
基本作図レイヤ
  6
EXLTYPE4
 62
     1
100
AcDbCircle
 10
177.65
 20
109.017051
 30
0.0
 40
2.504502
100
AcDbArc
 50
239.434105
 51
270.0
  0
LINE
  5
142
100
AcDbEntity
  8
基本作図レイヤ
  6
EXLTYPE4
 62
     1
100
AcDbLine
 10
172.623612
 20
109.262549
 30
0.0
 11
172.623612
 21
106.860563
 31
0.0
  0
LINE
  5
143
100
AcDbEntity
  8
基本作図レイヤ
  6
EXLTYPE4
 62
     1
100
AcDbLine
 10
176.376388
 20
109.262549
 30
0.0
 11
176.376388
 21
106.860563
 31
0.0
  0
LINE
  5
144
100
AcDbEntity
  8
基本作図レイヤ
  6
EXLTYPE4
 62
     1
100
AcDbLine
 10
170.133033
 20
122.262549
 30
0.0
 11
170.747223
 21
122.762549
 31
0.0
  0
LINE
  5
145
100
AcDbEntity
  8
基本作図レイヤ
  6
EXLTYPE4
 62
     1
100
AcDbLine
 10
170.747223
 20
122.762549
 30
0.0
 11
178.252777
 21
122.762549
 31
0.0
  0
LINE
  5
146
100
AcDbEntity
  8
基本作図レイヤ
  6
EXLTYPE4
 62
     1
100
AcDbLine
 10
178.252777
 20
122.762549
 30
0.0
 11
178.844061
 21
122.262549
 31
0.0
  0
LINE
  5
147
100
AcDbEntity
  8
基本作図レイヤ
  6
EXLTYPE4
 62
     1
100
AcDbLine
 10
178.844061
 20
122.262549
 30
0.0
 11
170.133033
 21
122.262549
 31
0.0
  0
LINE
  5
148
100
AcDbEntity
  8
基本作図レイヤ
  6
EXLTYPE4
 62
     1
100
AcDbLine
 10
176.25
 20
122.262549
 30
0.0
 11
176.25
 21
109.262549
 31
0.0
  0
LINE
  5
149
100
AcDbEntity
  8
基本作図レイヤ
  6
EXLTYPE4
 62
     1
100
AcDbLine
 10
176.5
 20
109.262549
 30
0.0
 11
176.5
 21
122.262549
 31
0.0
  0
LINE
  5
14A
100
AcDbEntity
  8
基本作図レイヤ
  6
EXLTYPE3
 62
     1
100
AcDbLine
 10
174.5
 20
127.06844
 30
0.0
 11
174.5
 21
105.430887
 31
0.0
  0
LINE
  5
14B
100
AcDbEntity
  8
基本作図レイヤ
  6
EXLTYPE4
 62
     1
100
AcDbLine
 10
154.886141
 20
151.012549
 30
0.0
 11
155.136244
 21
151.012549
 31
0.0
  0
LINE
  5
14C
100
AcDbEntity
  8
基本作図レイヤ
  6
EXLTYPE4
 62
     1
100
AcDbLine
 10
155.136244
 20
151.012549
 30
0.0
 11
155.56666
 21
136.012549
 31
0.0
  0
LINE
  5
14D
100
AcDbEntity
  8
基本作図レイヤ
  6
EXLTYPE4
 62
     1
100
AcDbLine
 10
155.56666
 20
136.012549
 30
0.0
 11
155.316557
 21
136.012549
 31
0.0
  0
LINE
  5
14E
100
AcDbEntity
  8
基本作図レイヤ
  6
EXLTYPE4
 62
     1
100
AcDbLine
 10
152.351452
 20
144.262549
 30
0.0
 11
152.351452
 21
142.762549
 31
0.0
  0
ARC
  5
14F
100
AcDbEntity
  8
基本作図レイヤ
  6
EXLTYPE4
 62
     1
100
AcDbCircle
 10
155.351452
 20
143.512549
 30
0.0
 40
0.78406
100
AcDbArc
 50
253.05003
 51
109.908611
  0
LINE
  5
150
100
AcDbEntity
  8
基本作図レイヤ
  6
EXLTYPE3
 62
     1
100
AcDbLine
 10
122.498107
 20
173.155634
 30
0.0
 11
122.498107
 21
170.707639
 31
0.0
  0
LINE
  5
151
100
AcDbEntity
  8
基本作図レイヤ
  6
EXLTYPE3
 62
     1
100
AcDbLine
 10
122.5
 20
116.012549
 30
0.0
 11
122.5
 21
114.672645
 31
0.0
  0
LINE
  5
152
100
AcDbEntity
  8
基本作図レイヤ
  6
EXLTYPE3
 62
     1
100
AcDbLine
 10
146.497107
 20
173.155634
 30
0.0
 11
146.497107
 21
170.707639
 31
0.0
  0
LINE
  5
153
100
AcDbEntity
  8
基本作図レイヤ
  6
EXLTYPE3
 62
     1
100
AcDbLine
 10
146.499
 20
116.012549
 30
0.0
 11
146.499
 21
114.672645
 31
0.0
  0
LINE
  5
154
100
AcDbEntity
  8
基本作図レイヤ
  6
CONTINUOUS
 62
     1
100
AcDbLine
 10
133.675
 20
66.716025
 30
0.0
 11
133.5
 21
66.716025
 31
0.0
  0
LINE
  5
155
100
AcDbEntity
  8
基本作図レイヤ
  6
CONTINUOUS
 62
     1
100
AcDbLine
 10
133.7
 20
66.716025
 30
0.0
 11
133.7
 21
63.966025
 31
0.0
  0
LINE
  5
156
100
AcDbEntity
  8
基本作図レイヤ
  6
CONTINUOUS
 62
     1
100
AcDbLine
 10
135.3
 20
66.716025
 30
0.0
 11
135.3
 21
63.966025
 31
0.0
  0
LINE
  5
157
100
AcDbEntity
  8
基本作図レイヤ
  6
CONTINUOUS
 62
     1
100
AcDbLine
 10
135.5
 20
63.716025
 30
0.0
 11
135.5
 21
66.416025
 31
0.0
  0
LINE
  5
158
100
AcDbEntity
  8
基本作図レイヤ
  6
CONTINUOUS
 62
     1
100
AcDbLine
 10
135.3
 20
63.369615
 30
0.0
 11
135.5
 21
63.716025
 31
0.0
  0
LINE
  5
159
100
AcDbEntity
  8
基本作図レイヤ
  6
CONTINUOUS
 62
     1
100
AcDbLine
 10
133.5
 20
63.716025
 30
0.0
 11
133.5
 21
66.416025
 31
0.0
  0
LINE
  5
15A
100
AcDbEntity
  8
基本作図レイヤ
  6
CONTINUOUS
 62
     1
100
AcDbLine
 10
133.7
 20
63.369615
 30
0.0
 11
133.5
 21
63.716025
 31
0.0
  0
LINE
  5
15B
100
AcDbEntity
  8
基本作図レイヤ
  6
CONTINUOUS
 62
     1
100
AcDbLine
 10
133.5
 20
67.062436
 30
0.0
 11
133.7
 21
66.716025
 31
0.0
  0
LINE
  5
15C
100
AcDbEntity
  8
基本作図レイヤ
  6
CONTINUOUS
 62
     1
100
AcDbLine
 10
135.3
 20
66.716025
 30
0.0
 11
135.5
 21
67.062436
 31
0.0
  0
LINE
  5
15D
100
AcDbEntity
  8
基本作図レイヤ
  6
EXLTYPE4
 62
     1
100
AcDbLine
 10
110.465109
 20
101.222824
 30
0.0
 11
117.965109
 21
99.747414
 31
0.0
  0
ARC
  5
15E
100
AcDbEntity
  8
基本作図レイヤ
  6
EXLTYPE4
 62
     1
100
AcDbCircle
 10
117.0
 20
94.841442
 30
0.0
 40
5.0
100
AcDbArc
 50
0.0
 51
78.870811
  0
ARC
  5
15F
100
AcDbEntity
  8
基本作図レイヤ
  6
EXLTYPE4
 62
     1
100
AcDbCircle
 10
117.0
 20
91.192908
 30
0.0
 40
5.0
100
AcDbArc
 50
284.801701
 51
0.0
  0
LINE
  5
160
100
AcDbEntity
  8
基本作図レイヤ
  6
EXLTYPE4
 62
     1
100
AcDbLine
 10
122.0
 20
94.841442
 30
0.0
 11
122.0
 21
91.192908
 31
0.0
  0
ARC
  5
161
100
AcDbEntity
  8
基本作図レイヤ
  6
EXLTYPE4
 62
     1
100
AcDbCircle
 10
134.5
 20
24.966025
 30
0.0
 40
63.5
100
AcDbArc
 50
104.801701
 51
111.549115
  0
LINE
  5
162
100
AcDbEntity
  8
基本作図レイヤ
  6
EXLTYPE4
 62
     1
100
AcDbLine
 10
158.534891
 20
101.222824
 30
0.0
 11
151.034891
 21
99.747414
 31
0.0
  0
ARC
  5
163
100
AcDbEntity
  8
基本作図レイヤ
  6
EXLTYPE4
 62
     1
100
AcDbCircle
 10
152.0
 20
94.841442
 30
0.0
 40
5.0
100
AcDbArc
 50
101.129189
 51
180.0
  0
LINE
  5
164
100
AcDbEntity
  8
基本作図レイヤ
  6
EXLTYPE4
 62
     1
100
AcDbLine
 10
147.0
 20
94.841442
 30
0.0
 11
147.0
 21
91.192908
 31
0.0
  0
ARC
  5
165
100
AcDbEntity
  8
基本作図レイヤ
  6
EXLTYPE4
 62
     1
100
AcDbCircle
 10
152.0
 20
91.192908
 30
0.0
 40
5.0
100
AcDbArc
 50
180.0
 51
255.198299
  0
ARC
  5
166
100
AcDbEntity
  8
基本作図レイヤ
  6
EXLTYPE4
 62
     1
100
AcDbCircle
 10
134.5
 20
24.966025
 30
0.0
 40
63.5
100
AcDbArc
 50
68.450885
 51
75.198299
  0
LINE
  5
167
100
AcDbEntity
  8
基本作図レイヤ
  6
CONTINUOUS
 62
     1
100
AcDbLine
 10
138.75
 20
100.829537
 30
0.0
 11
139.0
 21
101.262549
 31
0.0
  0
LINE
  5
168
100
AcDbEntity
  8
基本作図レイヤ
  6
CONTINUOUS
 62
     1
100
AcDbLine
 10
130.25
 20
100.829537
 30
0.0
 11
130.0
 21
101.262549
 31
0.0
  0
LINE
  5
169
100
AcDbEntity
  8
基本作図レイヤ
  6
EXLTYPE4
 62
     1
100
AcDbLine
 10
129.75
 20
107.762549
 30
0.0
 11
129.75
 21
105.262549
 31
0.0
  0
LINE
  5
16A
100
AcDbEntity
  8
基本作図レイヤ
  6
CONTINUOUS
 62
     1
100
AcDbLine
 10
130.0
 20
104.695562
 30
0.0
 11
130.25
 21
104.262549
 31
0.0
  0
LINE
  5
16B
100
AcDbEntity
  8
基本作図レイヤ
  6
CONTINUOUS
 62
     1
100
AcDbLine
 10
139.0
 20
104.695562
 30
0.0
 11
138.75
 21
104.262549
 31
0.0
  0
LINE
  5
16C
100
AcDbEntity
  8
基本作図レイヤ
  6
EXLTYPE4
 62
     1
100
AcDbLine
 10
139.25
 20
107.762549
 30
0.0
 11
139.25
 21
105.262549
 31
0.0
  0
LINE
  5
16D
100
AcDbEntity
  8
基本作図レイヤ
  6
CONTINUOUS
 62
     1
100
AcDbLine
 10
139.0
 20
101.262549
 30
0.0
 11
139.0
 21
104.512549
 31
0.0
  0
LINE
  5
16E
100
AcDbEntity
  8
基本作図レイヤ
  6
CONTINUOUS
 62
     1
100
AcDbLine
 10
138.75
 20
104.262549
 30
0.0
 11
138.75
 21
101.512549
 31
0.0
  0
LINE
  5
16F
100
AcDbEntity
  8
基本作図レイヤ
  6
CONTINUOUS
 62
     1
100
AcDbLine
 10
130.25
 20
104.262549
 30
0.0
 11
130.25
 21
101.512549
 31
0.0
  0
LINE
  5
170
100
AcDbEntity
  8
基本作図レイヤ
  6
CONTINUOUS
 62
     1
100
AcDbLine
 10
130.0
 20
101.262549
 30
0.0
 11
130.0
 21
104.512549
 31
0.0
  0
LINE
  5
171
100
AcDbEntity
  8
基本作図レイヤ
  6
EXLTYPE4
 62
     1
100
AcDbLine
 10
128.75
 20
105.262549
 30
0.0
 11
128.75
 21
103.012549
 31
0.0
  0
LINE
  5
172
100
AcDbEntity
  8
基本作図レイヤ
  6
EXLTYPE4
 62
     1
100
AcDbLine
 10
140.25
 20
105.262549
 30
0.0
 11
140.25
 21
103.012549
 31
0.0
  0
LINE
  5
173
100
AcDbEntity
  8
基本作図レイヤ
  6
EXLTYPE3
 62
     1
100
AcDbLine
 10
148.5
 20
104.633077
 30
0.0
 11
148.5
 21
85.083077
 31
0.0
  0
LINE
  5
174
100
AcDbEntity
  8
基本作図レイヤ
  6
CONTINUOUS
 62
     1
100
AcDbLine
 10
139.75
 20
96.829537
 30
0.0
 11
140.0
 21
97.262549
 31
0.0
  0
LINE
  5
175
100
AcDbEntity
  8
基本作図レイヤ
  6
CONTINUOUS
 62
     1
100
AcDbLine
 10
129.25
 20
96.829537
 30
0.0
 11
129.0
 21
97.262549
 31
0.0
  0
LINE
  5
176
100
AcDbEntity
  8
基本作図レイヤ
  6
CONTINUOUS
 62
     1
100
AcDbLine
 10
140.0
 20
97.762549
 30
0.0
 11
140.0
 21
97.262549
 31
0.0
  0
LINE
  5
177
100
AcDbEntity
  8
基本作図レイヤ
  6
CONTINUOUS
 62
     1
100
AcDbLine
 10
129.0
 20
97.762549
 30
0.0
 11
129.0
 21
97.262549
 31
0.0
  0
LINE
  5
178
100
AcDbEntity
  8
基本作図レイヤ
  6
CONTINUOUS
 62
     1
100
AcDbLine
 10
139.75
 20
101.762549
 30
0.0
 11
139.75
 21
97.512549
 31
0.0
  0
LINE
  5
179
100
AcDbEntity
  8
基本作図レイヤ
  6
CONTINUOUS
 62
     1
100
AcDbLine
 10
139.75
 20
101.762549
 30
0.0
 11
140.0
 21
102.195562
 31
0.0
  0
LINE
  5
17A
100
AcDbEntity
  8
基本作図レイヤ
  6
CONTINUOUS
 62
     1
100
AcDbLine
 10
129.25
 20
101.762549
 30
0.0
 11
129.0
 21
102.195562
 31
0.0
  0
LINE
  5
17B
100
AcDbEntity
  8
基本作図レイヤ
  6
CONTINUOUS
 62
     1
100
AcDbLine
 10
129.25
 20
101.762549
 30
0.0
 11
129.25
 21
97.512549
 31
0.0
  0
LINE
  5
17C
100
AcDbEntity
  8
基本作図レイヤ
  6
CONTINUOUS
 62
     7
100
AcDbLine
 10
244.279266
 20
74.216025
 30
0.0
 11
248.029266
 21
74.216025
 31
0.0
  0
LINE
  5
17D
100
AcDbEntity
  8
基本作図レイヤ
  6
CONTINUOUS
 62
     7
100
AcDbLine
 10
248.029266
 20
74.216025
 30
0.0
 11
248.029266
 21
75.466025
 31
0.0
  0
LINE
  5
17E
100
AcDbEntity
  8
基本作図レイヤ
  6
CONTINUOUS
 62
     7
100
AcDbLine
 10
248.029266
 20
75.466025
 30
0.0
 11
251.779266
 21
72.966025
 31
0.0
  0
LINE
  5
17F
100
AcDbEntity
  8
基本作図レイヤ
  6
CONTINUOUS
 62
     7
100
AcDbLine
 10
251.779266
 20
72.966025
 30
0.0
 11
248.029266
 21
70.466025
 31
0.0
  0
LINE
  5
180
100
AcDbEntity
  8
基本作図レイヤ
  6
CONTINUOUS
 62
     7
100
AcDbLine
 10
248.029266
 20
70.466025
 30
0.0
 11
248.029266
 21
71.716025
 31
0.0
  0
LINE
  5
181
100
AcDbEntity
  8
基本作図レイヤ
  6
CONTINUOUS
 62
     7
100
AcDbLine
 10
248.029266
 20
71.716025
 30
0.0
 11
244.279266
 21
71.716025
 31
0.0
  0
LINE
  5
182
100
AcDbEntity
  8
基本作図レイヤ
  6
CONTINUOUS
 62
     7
100
AcDbLine
 10
244.279266
 20
71.716025
 30
0.0
 11
244.279266
 21
74.216025
 31
0.0
  0
LINE
  5
183
100
AcDbEntity
  8
基本作図レイヤ
  6
EXLTYPE3
 62
     1
100
AcDbLine
 10
80.8
 20
72.966025
 30
0.0
 11
239.85
 21
72.966025
 31
0.0
  0
LINE
  5
184
100
AcDbEntity
  8
基本作図レイヤ
  6
EXLTYPE3
 62
     1
100
AcDbLine
 10
134.5
 20
229.5
 30
0.0
 11
134.5
 21
43.709422
 31
0.0
  0
LINE
  5
185
100
AcDbEntity
  8
基本作図レイヤ
  6
CONTINUOUS
 62
     2
100
AcDbLine
 10
133.0
 20
68.116025
 30
0.0
 11
133.5
 21
68.982051
 31
0.0
  0
LINE
  5
186
100
AcDbEntity
  8
基本作図レイヤ
  6
CONTINUOUS
 62
     2
100
AcDbLine
 10
146.5
 20
54.966025
 30
0.0
 11
146.5
 21
56.036074
 31
0.0
  0
LINE
  5
187
100
AcDbEntity
  8
基本作図レイヤ
  6
CONTINUOUS
 62
     2
100
AcDbLine
 10
146.200971
 20
56.28122
 30
0.0
 11
144.75
 21
55.991025
 31
0.0
  0
LINE
  5
188
100
AcDbEntity
  8
基本作図レイヤ
  6
CONTINUOUS
 62
     2
100
AcDbLine
 10
144.75
 20
55.991025
 30
0.0
 11
144.0
 21
55.991025
 31
0.0
  0
LINE
  5
189
100
AcDbEntity
  8
基本作図レイヤ
  6
CONTINUOUS
 62
     2
100
AcDbLine
 10
124.5
 20
61.216025
 30
0.0
 11
124.5
 21
57.332051
 31
0.0
  0
ARC
  5
18A
100
AcDbEntity
  8
基本作図レイヤ
  6
CONTINUOUS
 62
     2
100
AcDbCircle
 10
146.25
 20
56.036074
 30
0.0
 40
0.25
100
AcDbArc
 50
0.0
 51
101.309932
  0
ARC
  5
18B
100
AcDbEntity
  8
基本作図レイヤ
  6
CONTINUOUS
 62
     2
100
AcDbCircle
 10
122.75
 20
56.036074
 30
0.0
 40
0.25
100
AcDbArc
 50
78.690068
 51
180.0
  0
LINE
  5
18C
100
AcDbEntity
  8
基本作図レイヤ
  6
CONTINUOUS
 62
     2
100
AcDbLine
 10
144.5
 20
61.216025
 30
0.0
 11
144.5
 21
57.332051
 31
0.0
  0
LINE
  5
18D
100
AcDbEntity
  8
基本作図レイヤ
  6
CONTINUOUS
 62
     2
100
AcDbLine
 10
124.25
 20
55.991025
 30
0.0
 11
125.0
 21
55.991025
 31
0.0
  0
LINE
  5
18E
100
AcDbEntity
  8
基本作図レイヤ
  6
CONTINUOUS
 62
     2
100
AcDbLine
 10
122.799029
 20
56.28122
 30
0.0
 11
124.25
 21
55.991025
 31
0.0
  0
LINE
  5
18F
100
AcDbEntity
  8
基本作図レイヤ
  6
CONTINUOUS
 62
     2
100
AcDbLine
 10
122.5
 20
54.966025
 30
0.0
 11
122.5
 21
56.036074
 31
0.0
  0
LINE
  5
190
100
AcDbEntity
  8
基本作図レイヤ
  6
CONTINUOUS
 62
     2
100
AcDbLine
 10
133.5
 20
76.5
 30
0.0
 11
133.0
 21
78.366025
 31
0.0
  0
LINE
  5
191
100
AcDbEntity
  8
基本作図レイヤ
  6
CONTINUOUS
 62
     2
100
AcDbLine
 10
133.5
 20
68.982051
 30
0.0
 11
133.5
 21
76.5
 31
0.0
  0
LINE
  5
192
100
AcDbEntity
  8
基本作図レイヤ
  6
CONTINUOUS
 62
     2
100
AcDbLine
 10
136.0
 20
68.116025
 30
0.0
 11
133.0
 21
68.116025
 31
0.0
  0
LINE
  5
193
100
AcDbEntity
  8
基本作図レイヤ
  6
CONTINUOUS
 62
     2
100
AcDbLine
 10
133.0
 20
68.116025
 30
0.0
 11
133.0
 21
67.466025
 31
0.0
  0
LINE
  5
194
100
AcDbEntity
  8
基本作図レイヤ
  6
CONTINUOUS
 62
     2
100
AcDbLine
 10
136.0
 20
67.466025
 30
0.0
 11
136.0
 21
68.116025
 31
0.0
  0
LINE
  5
195
100
AcDbEntity
  8
基本作図レイヤ
  6
CONTINUOUS
 62
     2
100
AcDbLine
 10
136.0
 20
78.366025
 30
0.0
 11
135.5
 21
76.5
 31
0.0
  0
LINE
  5
196
100
AcDbEntity
  8
基本作図レイヤ
  6
CONTINUOUS
 62
     2
100
AcDbLine
 10
135.5
 20
76.5
 30
0.0
 11
135.5
 21
68.982051
 31
0.0
  0
LINE
  5
197
100
AcDbEntity
  8
基本作図レイヤ
  6
CONTINUOUS
 62
     2
100
AcDbLine
 10
135.5
 20
68.982051
 30
0.0
 11
136.0
 21
68.116025
 31
0.0
  0
LINE
  5
198
100
AcDbEntity
  8
基本作図レイヤ
  6
CONTINUOUS
 62
     2
100
AcDbLine
 10
133.5
 20
76.5
 30
0.0
 11
135.5
 21
76.5
 31
0.0
  0
LINE
  5
199
100
AcDbEntity
  8
基本作図レイヤ
  6
CONTINUOUS
 62
     2
100
AcDbLine
 10
133.5
 20
68.982051
 30
0.0
 11
135.5
 21
68.982051
 31
0.0
  0
LINE
  5
19A
100
AcDbEntity
  8
基本作図レイヤ
  6
CONTINUOUS
 62
     2
100
AcDbLine
 10
147.75
 20
51.966025
 30
0.0
 11
147.75
 21
54.966025
 31
0.0
  0
LINE
  5
19B
100
AcDbEntity
  8
基本作図レイヤ
  6
CONTINUOUS
 62
     2
100
AcDbLine
 10
144.9
 20
51.966025
 30
0.0
 11
147.75
 21
51.966025
 31
0.0
  0
LINE
  5
19C
100
AcDbEntity
  8
基本作図レイヤ
  6
CONTINUOUS
 62
     2
100
AcDbLine
 10
144.9
 20
47.766025
 30
0.0
 11
144.9
 21
51.966025
 31
0.0
  0
LINE
  5
19D
100
AcDbEntity
  8
基本作図レイヤ
  6
CONTINUOUS
 62
     2
100
AcDbLine
 10
144.9
 20
47.766025
 30
0.0
 11
143.5
 21
46.966025
 31
0.0
  0
LINE
  5
19E
100
AcDbEntity
  8
基本作図レイヤ
  6
CONTINUOUS
 62
     2
100
AcDbLine
 10
125.5
 20
46.966025
 30
0.0
 11
124.1
 21
47.766025
 31
0.0
  0
LINE
  5
19F
100
AcDbEntity
  8
基本作図レイヤ
  6
CONTINUOUS
 62
     2
100
AcDbLine
 10
125.5
 20
46.966025
 30
0.0
 11
143.5
 21
46.966025
 31
0.0
  0
LINE
  5
1A0
100
AcDbEntity
  8
基本作図レイヤ
  6
CONTINUOUS
 62
     2
100
AcDbLine
 10
144.0
 20
54.966025
 30
0.0
 11
144.0
 21
56.466025
 31
0.0
  0
LINE
  5
1A1
100
AcDbEntity
  8
基本作図レイヤ
  6
CONTINUOUS
 62
     2
100
AcDbLine
 10
144.5
 20
61.216025
 30
0.0
 11
144.0
 21
61.716025
 31
0.0
  0
LINE
  5
1A2
100
AcDbEntity
  8
基本作図レイヤ
  6
CONTINUOUS
 62
     2
100
AcDbLine
 10
144.5
 20
57.332051
 30
0.0
 11
144.5
 21
60.85
 31
0.0
  0
LINE
  5
1A3
100
AcDbEntity
  8
基本作図レイヤ
  6
CONTINUOUS
 62
     2
100
AcDbLine
 10
144.0
 20
61.716025
 30
0.0
 11
143.5
 21
61.716025
 31
0.0
  0
LINE
  5
1A4
100
AcDbEntity
  8
基本作図レイヤ
  6
CONTINUOUS
 62
     2
100
AcDbLine
 10
144.5
 20
57.332051
 30
0.0
 11
144.0
 21
56.466025
 31
0.0
  0
LINE
  5
1A5
100
AcDbEntity
  8
基本作図レイヤ
  6
CONTINUOUS
 62
     2
100
AcDbLine
 10
125.0
 20
56.466025
 30
0.0
 11
125.0
 21
54.966025
 31
0.0
  0
LINE
  5
1A6
100
AcDbEntity
  8
基本作図レイヤ
  6
CONTINUOUS
 62
     2
100
AcDbLine
 10
121.25
 20
54.966025
 30
0.0
 11
121.25
 21
51.966025
 31
0.0
  0
LINE
  5
1A7
100
AcDbEntity
  8
基本作図レイヤ
  6
CONTINUOUS
 62
     2
100
AcDbLine
 10
121.25
 20
51.966025
 30
0.0
 11
124.1
 21
51.966025
 31
0.0
  0
LINE
  5
1A8
100
AcDbEntity
  8
基本作図レイヤ
  6
CONTINUOUS
 62
     2
100
AcDbLine
 10
124.1
 20
51.966025
 30
0.0
 11
124.1
 21
47.766025
 31
0.0
  0
LINE
  5
1A9
100
AcDbEntity
  8
基本作図レイヤ
  6
CONTINUOUS
 62
     2
100
AcDbLine
 10
126.0
 20
61.216025
 30
0.0
 11
126.0
 21
57.216025
 31
0.0
  0
LINE
  5
1AA
100
AcDbEntity
  8
基本作図レイヤ
  6
CONTINUOUS
 62
     2
100
AcDbLine
 10
126.0
 20
57.216025
 30
0.0
 11
129.0
 21
57.216025
 31
0.0
  0
LINE
  5
1AB
100
AcDbEntity
  8
基本作図レイヤ
  6
CONTINUOUS
 62
     2
100
AcDbLine
 10
143.0
 20
57.216025
 30
0.0
 11
143.0
 21
61.216025
 31
0.0
  0
LINE
  5
1AC
100
AcDbEntity
  8
基本作図レイヤ
  6
CONTINUOUS
 62
     2
100
AcDbLine
 10
128.0
 20
57.216025
 30
0.0
 11
128.0
 21
51.966025
 31
0.0
  0
LINE
  5
1AD
100
AcDbEntity
  8
基本作図レイヤ
  6
CONTINUOUS
 62
     2
100
AcDbLine
 10
128.0
 20
51.966025
 30
0.0
 11
130.125
 21
51.966025
 31
0.0
  0
LINE
  5
1AE
100
AcDbEntity
  8
基本作図レイヤ
  6
CONTINUOUS
 62
     2
100
AcDbLine
 10
130.125
 20
51.966025
 30
0.0
 11
130.125
 21
53.466025
 31
0.0
  0
LINE
  5
1AF
100
AcDbEntity
  8
基本作図レイヤ
  6
CONTINUOUS
 62
     2
100
AcDbLine
 10
130.125
 20
53.466025
 30
0.0
 11
138.875
 21
53.466025
 31
0.0
  0
LINE
  5
1B0
100
AcDbEntity
  8
基本作図レイヤ
  6
CONTINUOUS
 62
     2
100
AcDbLine
 10
138.875
 20
53.466025
 30
0.0
 11
138.875
 21
51.966025
 31
0.0
  0
LINE
  5
1B1
100
AcDbEntity
  8
基本作図レイヤ
  6
CONTINUOUS
 62
     2
100
AcDbLine
 10
138.875
 20
51.966025
 30
0.0
 11
141.0
 21
51.966025
 31
0.0
  0
LINE
  5
1B2
100
AcDbEntity
  8
基本作図レイヤ
  6
CONTINUOUS
 62
     2
100
AcDbLine
 10
141.0
 20
51.966025
 30
0.0
 11
141.0
 21
53.466025
 31
0.0
  0
LINE
  5
1B3
100
AcDbEntity
  8
基本作図レイヤ
  6
CONTINUOUS
 62
     2
100
AcDbLine
 10
141.0
 20
53.466025
 30
0.0
 11
141.0
 21
57.216025
 31
0.0
  0
LINE
  5
1B4
100
AcDbEntity
  8
基本作図レイヤ
  6
CONTINUOUS
 62
     2
100
AcDbLine
 10
125.5
 20
61.716025
 30
0.0
 11
126.0
 21
61.216025
 31
0.0
  0
LINE
  5
1B5
100
AcDbEntity
  8
基本作図レイヤ
  6
CONTINUOUS
 62
     2
100
AcDbLine
 10
143.0
 20
61.216025
 30
0.0
 11
143.5
 21
61.716025
 31
0.0
  0
LINE
  5
1B6
100
AcDbEntity
  8
基本作図レイヤ
  6
CONTINUOUS
 62
     2
100
AcDbLine
 10
125.0
 20
61.716025
 30
0.0
 11
124.5
 21
61.216025
 31
0.0
  0
LINE
  5
1B7
100
AcDbEntity
  8
基本作図レイヤ
  6
CONTINUOUS
 62
     2
100
AcDbLine
 10
125.0
 20
56.466025
 30
0.0
 11
124.5
 21
57.332051
 31
0.0
  0
LINE
  5
1B8
100
AcDbEntity
  8
基本作図レイヤ
  6
CONTINUOUS
 62
     2
100
AcDbLine
 10
125.5
 20
61.716025
 30
0.0
 11
125.0
 21
61.716025
 31
0.0
  0
LINE
  5
1B9
100
AcDbEntity
  8
基本作図レイヤ
  6
CONTINUOUS
 62
     2
100
AcDbLine
 10
124.575
 20
55.616123
 30
0.0
 11
124.575
 21
55.466025
 31
0.0
  0
ARC
  5
1BA
100
AcDbEntity
  8
基本作図レイヤ
  6
CONTINUOUS
 62
     2
100
AcDbCircle
 10
124.075
 20
55.616123
 30
0.0
 40
0.5
100
AcDbArc
 50
0.0
 51
48.573394
  0
ARC
  5
1BB
100
AcDbEntity
  8
基本作図レイヤ
  6
CONTINUOUS
 62
     2
100
AcDbCircle
 10
124.075
 20
55.466025
 30
0.0
 40
0.5
100
AcDbArc
 50
270.0
 51
0.0
  0
LINE
  5
1BC
100
AcDbEntity
  8
基本作図レイヤ
  6
CONTINUOUS
 62
     2
100
AcDbLine
 10
144.425
 20
55.616123
 30
0.0
 11
144.425
 21
55.466025
 31
0.0
  0
ARC
  5
1BD
100
AcDbEntity
  8
基本作図レイヤ
  6
CONTINUOUS
 62
     2
100
AcDbCircle
 10
144.925
 20
55.466025
 30
0.0
 40
0.5
100
AcDbArc
 50
180.0
 51
270.0
  0
ARC
  5
1BE
100
AcDbEntity
  8
基本作図レイヤ
  6
CONTINUOUS
 62
     2
100
AcDbCircle
 10
144.925
 20
55.616123
 30
0.0
 40
0.5
100
AcDbArc
 50
131.426606
 51
180.0
  0
LINE
  5
1BF
100
AcDbEntity
  8
基本作図レイヤ
  6
CONTINUOUS
 62
     2
100
AcDbLine
 10
140.0
 20
74.516025
 30
0.0
 11
140.0
 21
72.916025
 31
0.0
  0
LINE
  5
1C0
100
AcDbEntity
  8
基本作図レイヤ
  6
CONTINUOUS
 62
     2
100
AcDbLine
 10
141.15
 20
70.566025
 30
0.0
 11
141.15
 21
69.091303
 31
0.0
  0
LINE
  5
1C1
100
AcDbEntity
  8
基本作図レイヤ
  6
CONTINUOUS
 62
     2
100
AcDbLine
 10
141.15
 20
70.566025
 30
0.0
 11
140.0
 21
71.716025
 31
0.0
  0
LINE
  5
1C2
100
AcDbEntity
  8
基本作図レイヤ
  6
CONTINUOUS
 62
     2
100
AcDbLine
 10
140.5
 20
68.716025
 30
0.0
 11
141.15
 21
69.091303
 31
0.0
  0
LINE
  5
1C3
100
AcDbEntity
  8
基本作図レイヤ
  6
CONTINUOUS
 62
     2
100
AcDbLine
 10
139.55
 20
71.716025
 30
0.0
 11
139.55
 21
72.466025
 31
0.0
  0
LINE
  5
1C4
100
AcDbEntity
  8
基本作図レイヤ
  6
CONTINUOUS
 62
     2
100
AcDbLine
 10
139.55
 20
72.466025
 30
0.0
 11
140.0
 21
72.916025
 31
0.0
  0
LINE
  5
1C5
100
AcDbEntity
  8
基本作図レイヤ
  6
CONTINUOUS
 62
     2
100
AcDbLine
 10
140.0
 20
74.516025
 30
0.0
 11
139.55
 21
74.966025
 31
0.0
  0
LINE
  5
1C6
100
AcDbEntity
  8
基本作図レイヤ
  6
CONTINUOUS
 62
     2
100
AcDbLine
 10
140.0
 20
71.716025
 30
0.0
 11
139.55
 21
71.716025
 31
0.0
  0
LINE
  5
1C7
100
AcDbEntity
  8
基本作図レイヤ
  6
CONTINUOUS
 62
     2
100
AcDbLine
 10
138.5
 20
71.216115
 30
0.0
 11
137.25
 21
69.966115
 31
0.0
  0
LINE
  5
1C8
100
AcDbEntity
  8
基本作図レイヤ
  6
CONTINUOUS
 62
     2
100
AcDbLine
 10
138.5
 20
74.466025
 30
0.0
 11
138.5
 21
71.216115
 31
0.0
  0
LINE
  5
1C9
100
AcDbEntity
  8
基本作図レイヤ
  6
CONTINUOUS
 62
     2
100
AcDbLine
 10
137.25
 20
69.966115
 30
0.0
 11
137.25
 21
67.668536
 31
0.0
  0
ARC
  5
1CA
100
AcDbEntity
  8
基本作図レイヤ
  6
CONTINUOUS
 62
     2
100
AcDbCircle
 10
137.45
 20
67.666115
 30
0.0
 40
0.2
100
AcDbArc
 50
179.306464
 51
315.0
  0
LINE
  5
1CB
100
AcDbEntity
  8
基本作図レイヤ
  6
CONTINUOUS
 62
     2
100
AcDbLine
 10
138.782843
 20
68.716025
 30
0.0
 11
140.5
 21
68.716025
 31
0.0
  0
LINE
  5
1CC
100
AcDbEntity
  8
基本作図レイヤ
  6
CONTINUOUS
 62
     2
100
AcDbLine
 10
129.0
 20
74.516025
 30
0.0
 11
129.0
 21
72.916025
 31
0.0
  0
LINE
  5
1CD
100
AcDbEntity
  8
基本作図レイヤ
  6
CONTINUOUS
 62
     2
100
AcDbLine
 10
127.85
 20
70.566025
 30
0.0
 11
127.85
 21
69.091303
 31
0.0
  0
LINE
  5
1CE
100
AcDbEntity
  8
基本作図レイヤ
  6
CONTINUOUS
 62
     2
100
AcDbLine
 10
127.85
 20
70.566025
 30
0.0
 11
129.0
 21
71.716025
 31
0.0
  0
LINE
  5
1CF
100
AcDbEntity
  8
基本作図レイヤ
  6
CONTINUOUS
 62
     2
100
AcDbLine
 10
128.5
 20
68.716025
 30
0.0
 11
127.85
 21
69.091303
 31
0.0
  0
LINE
  5
1D0
100
AcDbEntity
  8
基本作図レイヤ
  6
CONTINUOUS
 62
     2
100
AcDbLine
 10
129.45
 20
71.716025
 30
0.0
 11
129.45
 21
72.466025
 31
0.0
  0
LINE
  5
1D1
100
AcDbEntity
  8
基本作図レイヤ
  6
CONTINUOUS
 62
     2
100
AcDbLine
 10
129.45
 20
72.466025
 30
0.0
 11
129.0
 21
72.916025
 31
0.0
  0
LINE
  5
1D2
100
AcDbEntity
  8
基本作図レイヤ
  6
CONTINUOUS
 62
     2
100
AcDbLine
 10
129.0
 20
74.516025
 30
0.0
 11
129.45
 21
74.966025
 31
0.0
  0
LINE
  5
1D3
100
AcDbEntity
  8
基本作図レイヤ
  6
CONTINUOUS
 62
     2
100
AcDbLine
 10
129.0
 20
71.716025
 30
0.0
 11
129.45
 21
71.716025
 31
0.0
  0
LINE
  5
1D4
100
AcDbEntity
  8
基本作図レイヤ
  6
CONTINUOUS
 62
     2
100
AcDbLine
 10
130.5
 20
71.216115
 30
0.0
 11
131.75
 21
69.966115
 31
0.0
  0
LINE
  5
1D5
100
AcDbEntity
  8
基本作図レイヤ
  6
CONTINUOUS
 62
     2
100
AcDbLine
 10
130.5
 20
74.466025
 30
0.0
 11
130.5
 21
71.216115
 31
0.0
  0
LINE
  5
1D6
100
AcDbEntity
  8
基本作図レイヤ
  6
CONTINUOUS
 62
     2
100
AcDbLine
 10
131.75
 20
69.966115
 30
0.0
 11
131.75
 21
67.668536
 31
0.0
  0
ARC
  5
1D7
100
AcDbEntity
  8
基本作図レイヤ
  6
CONTINUOUS
 62
     2
100
AcDbCircle
 10
131.55
 20
67.666115
 30
0.0
 40
0.2
100
AcDbArc
 50
225.0
 51
0.693536
  0
LINE
  5
1D8
100
AcDbEntity
  8
基本作図レイヤ
  6
CONTINUOUS
 62
     2
100
AcDbLine
 10
130.217157
 20
68.716025
 30
0.0
 11
128.5
 21
68.716025
 31
0.0
  0
LINE
  5
1D9
100
AcDbEntity
  8
基本作図レイヤ
  6
CONTINUOUS
 62
     2
100
AcDbLine
 10
131.408579
 20
67.524694
 30
0.0
 11
130.217157
 21
68.716115
 31
0.0
  0
LINE
  5
1DA
100
AcDbEntity
  8
基本作図レイヤ
  6
CONTINUOUS
 62
     2
100
AcDbLine
 10
137.591421
 20
67.524694
 30
0.0
 11
138.782843
 21
68.716115
 31
0.0
  0
LINE
  5
1DB
100
AcDbEntity
  8
基本作図レイヤ
  6
CONTINUOUS
 62
     2
100
AcDbLine
 10
139.0
 20
74.966025
 30
0.0
 11
138.5
 21
74.466025
 31
0.0
  0
LINE
  5
1DC
100
AcDbEntity
  8
基本作図レイヤ
  6
CONTINUOUS
 62
     2
100
AcDbLine
 10
130.0
 20
74.966025
 30
0.0
 11
130.5
 21
74.466025
 31
0.0
  0
LINE
  5
1DD
100
AcDbEntity
  8
基本作図レイヤ
  6
CONTINUOUS
 62
     2
100
AcDbLine
 10
135.5
 20
74.966025
 30
0.0
 11
139.55
 21
74.966025
 31
0.0
  0
LINE
  5
1DE
100
AcDbEntity
  8
基本作図レイヤ
  6
CONTINUOUS
 62
     2
100
AcDbLine
 10
133.5
 20
74.966025
 30
0.0
 11
129.45
 21
74.966025
 31
0.0
  0
LINE
  5
1DF
100
AcDbEntity
  8
基本作図レイヤ
  6
CONTINUOUS
 62
     2
100
AcDbLine
 10
130.5
 20
74.466025
 30
0.0
 11
133.5
 21
74.466025
 31
0.0
  0
LINE
  5
1E0
100
AcDbEntity
  8
基本作図レイヤ
  6
CONTINUOUS
 62
     2
100
AcDbLine
 10
138.5
 20
74.466025
 30
0.0
 11
135.5
 21
74.466025
 31
0.0
  0
LINE
  5
1E1
100
AcDbEntity
  8
基本作図レイヤ
  6
CONTINUOUS
 62
     2
100
AcDbLine
 10
130.5
 20
71.216115
 30
0.0
 11
133.5
 21
71.216115
 31
0.0
  0
LINE
  5
1E2
100
AcDbEntity
  8
基本作図レイヤ
  6
CONTINUOUS
 62
     2
100
AcDbLine
 10
138.5
 20
71.216115
 30
0.0
 11
135.5
 21
71.216115
 31
0.0
  0
LINE
  5
1E3
100
AcDbEntity
  8
基本作図レイヤ
  6
CONTINUOUS
 62
     2
100
AcDbLine
 10
135.5
 20
69.966025
 30
0.0
 11
137.25
 21
69.966025
 31
0.0
  0
LINE
  5
1E4
100
AcDbEntity
  8
基本作図レイヤ
  6
CONTINUOUS
 62
     2
100
AcDbLine
 10
133.5
 20
69.966025
 30
0.0
 11
131.75
 21
69.966025
 31
0.0
  0
LINE
  5
1E5
100
AcDbEntity
  8
基本作図レイヤ
  6
CONTINUOUS
 62
     2
100
AcDbLine
 10
85.0
 20
47.966025
 30
0.0
 11
92.512972
 21
47.966025
 31
0.0
  0
LINE
  5
1E6
100
AcDbEntity
  8
基本作図レイヤ
  6
CONTINUOUS
 62
     2
100
AcDbLine
 10
85.0
 20
97.966025
 30
0.0
 11
92.477523
 21
97.966025
 31
0.0
  0
LINE
  5
1E7
100
AcDbEntity
  8
基本作図レイヤ
  6
CONTINUOUS
 62
     2
100
AcDbLine
 10
84.5
 20
86.966025
 30
0.0
 11
84.5
 21
58.966025
 31
0.0
  0
LINE
  5
1E8
100
AcDbEntity
  8
基本作図レイヤ
  6
CONTINUOUS
 62
     2
100
AcDbLine
 10
85.0
 20
87.466025
 30
0.0
 11
85.0
 21
97.966025
 31
0.0
  0
ARC
  5
1E9
100
AcDbEntity
  8
基本作図レイヤ
  6
CONTINUOUS
 62
     2
100
AcDbCircle
 10
84.5
 20
87.466025
 30
0.0
 40
0.5
100
AcDbArc
 50
270.0
 51
0.0
  0
LINE
  5
1EA
100
AcDbEntity
  8
基本作図レイヤ
  6
CONTINUOUS
 62
     2
100
AcDbLine
 10
85.0
 20
47.966025
 30
0.0
 11
85.0
 21
58.466025
 31
0.0
  0
ARC
  5
1EB
100
AcDbEntity
  8
基本作図レイヤ
  6
CONTINUOUS
 62
     2
100
AcDbCircle
 10
84.5
 20
58.466025
 30
0.0
 40
0.5
100
AcDbArc
 50
0.0
 51
90.0
  0
LINE
  5
1EC
100
AcDbEntity
  8
基本作図レイヤ
  6
CONTINUOUS
 62
     2
100
AcDbLine
 10
92.5
 20
47.966025
 30
0.0
 11
92.5
 21
59.216025
 31
0.0
  0
ARC
  5
1ED
100
AcDbEntity
  8
基本作図レイヤ
  6
CONTINUOUS
 62
     2
100
AcDbCircle
 10
97.5
 20
59.216025
 30
0.0
 40
5.0
100
AcDbArc
 50
90.0
 51
180.0
  0
LINE
  5
1EE
100
AcDbEntity
  8
基本作図レイヤ
  6
CONTINUOUS
 62
     2
100
AcDbLine
 10
92.5
 20
97.966025
 30
0.0
 11
92.5
 21
86.716025
 31
0.0
  0
ARC
  5
1EF
100
AcDbEntity
  8
基本作図レイヤ
  6
CONTINUOUS
 62
     2
100
AcDbCircle
 10
97.5
 20
86.716025
 30
0.0
 40
5.0
100
AcDbArc
 50
180.0
 51
270.0
  0
ARC
  5
1F0
100
AcDbEntity
  8
基本作図レイヤ
  6
CONTINUOUS
 62
     2
100
AcDbCircle
 10
134.5
 20
120.966025
 30
0.0
 40
60.0
100
AcDbArc
 50
242.56076
 51
260.931278
  0
LINE
  5
1F1
100
AcDbEntity
  8
基本作図レイヤ
  6
CONTINUOUS
 62
     2
100
AcDbLine
 10
97.5
 20
64.216025
 30
0.0
 11
106.00987
 21
64.216025
 31
0.0
  0
LINE
  5
1F2
100
AcDbEntity
  8
基本作図レイヤ
  6
CONTINUOUS
 62
     2
100
AcDbLine
 10
115.020844
 20
64.216025
 30
0.0
 11
115.173913
 21
64.216025
 31
0.0
  0
ARC
  5
1F3
100
AcDbEntity
  8
基本作図レイヤ
  6
CONTINUOUS
 62
     2
100
AcDbCircle
 10
97.5
 20
91.850614
 30
0.0
 40
5.0
100
AcDbArc
 50
180.0
 51
255.0
  0
ARC
  5
1F4
100
AcDbEntity
  8
基本作図レイヤ
  6
CONTINUOUS
 62
     2
100
AcDbCircle
 10
97.5
 20
54.081437
 30
0.0
 40
5.0
100
AcDbArc
 50
105.0
 51
180.0
  0
LINE
  5
1F5
100
AcDbEntity
  8
基本作図レイヤ
  6
CONTINUOUS
 62
     2
100
AcDbLine
 10
108.045946
 20
62.083595
 30
0.0
 11
96.205905
 21
58.911066
 31
0.0
  0
ARC
  5
1F6
100
AcDbEntity
  8
基本作図レイヤ
  6
CONTINUOUS
 62
     2
100
AcDbCircle
 10
109.340041
 20
57.253966
 30
0.0
 40
5.0
100
AcDbArc
 50
68.450885
 51
105.0
  0
LINE
  5
1F7
100
AcDbEntity
  8
基本作図レイヤ
  6
CONTINUOUS
 62
     2
100
AcDbLine
 10
108.045946
 20
83.848455
 30
0.0
 11
96.205905
 21
87.020985
 31
0.0
  0
ARC
  5
1F8
100
AcDbEntity
  8
基本作図レイヤ
  6
CONTINUOUS
 62
     2
100
AcDbCircle
 10
109.340041
 20
88.678084
 30
0.0
 40
5.0
100
AcDbArc
 50
255.0
 51
291.549115
  0
ARC
  5
1F9
100
AcDbEntity
  8
基本作図レイヤ
  6
CONTINUOUS
 62
     2
100
AcDbCircle
 10
159.659959
 20
88.678084
 30
0.0
 40
5.0
100
AcDbArc
 50
248.450885
 51
285.0
  0
ARC
  5
1FA
100
AcDbEntity
  8
基本作図レイヤ
  6
CONTINUOUS
 62
     2
100
AcDbCircle
 10
159.659959
 20
57.253966
 30
0.0
 40
5.0
100
AcDbArc
 50
75.0
 51
111.549115
  0
LINE
  5
1FB
100
AcDbEntity
  8
基本作図レイヤ
  6
CONTINUOUS
 62
     2
100
AcDbLine
 10
88.0
 20
78.216025
 30
0.0
 11
106.851537
 21
78.216025
 31
0.0
  0
LINE
  5
1FC
100
AcDbEntity
  8
基本作図レイヤ
  6
CONTINUOUS
 62
     2
100
AcDbLine
 10
88.0
 20
67.716025
 30
0.0
 11
106.851537
 21
67.716025
 31
0.0
  0
ARC
  5
1FD
100
AcDbEntity
  8
基本作図レイヤ
  6
CONTINUOUS
 62
     2
100
AcDbCircle
 10
88.0
 20
77.216025
 30
0.0
 40
1.0
100
AcDbArc
 50
90.0
 51
143.130102
  0
ARC
  5
1FE
100
AcDbEntity
  8
基本作図レイヤ
  6
CONTINUOUS
 62
     2
100
AcDbCircle
 10
88.0
 20
68.716025
 30
0.0
 40
1.0
100
AcDbArc
 50
216.869898
 51
270.0
  0
LINE
  5
1FF
100
AcDbEntity
  8
基本作図レイヤ
  6
CONTINUOUS
 62
     2
100
AcDbLine
 10
87.2
 20
77.816025
 30
0.0
 11
87.2
 21
68.116025
 31
0.0
  0
LINE
  5
200
100
AcDbEntity
  8
基本作図レイヤ
  6
CONTINUOUS
 62
     2
100
AcDbLine
 10
84.5
 20
77.816025
 30
0.0
 11
87.2
 21
77.816025
 31
0.0
  0
LINE
  5
201
100
AcDbEntity
  8
基本作図レイヤ
  6
CONTINUOUS
 62
     2
100
AcDbLine
 10
84.5
 20
68.116025
 30
0.0
 11
87.2
 21
68.116025
 31
0.0
  0
LINE
  5
202
100
AcDbEntity
  8
基本作図レイヤ
  6
CONTINUOUS
 62
     2
100
AcDbLine
 10
159.044602
 20
66.216025
 30
0.0
 11
181.0
 21
66.216025
 31
0.0
  0
LINE
  5
203
100
AcDbEntity
  8
基本作図レイヤ
  6
CONTINUOUS
 62
     2
100
AcDbLine
 10
159.044602
 20
79.716025
 30
0.0
 11
181.0
 21
79.716025
 31
0.0
  0
LINE
  5
204
100
AcDbEntity
  8
基本作図レイヤ
  6
CONTINUOUS
 62
     2
100
AcDbLine
 10
140.0
 20
57.216025
 30
0.0
 11
143.0
 21
57.216025
 31
0.0
  0
LINE
  5
205
100
AcDbEntity
  8
基本作図レイヤ
  6
CONTINUOUS
 62
     2
100
AcDbLine
 10
106.851537
 20
76.933077
 30
0.0
 11
106.851537
 21
68.483077
 31
0.0
  0
LINE
  5
206
100
AcDbEntity
  8
基本作図レイヤ
  6
CONTINUOUS
 62
     2
100
AcDbLine
 10
159.044602
 20
78.133077
 30
0.0
 11
159.044602
 21
67.033077
 31
0.0
  0
ARC
  5
207
100
AcDbEntity
  8
基本作図レイヤ
  6
CONTINUOUS
 62
     2
100
AcDbCircle
 10
134.5
 20
120.966025
 30
0.0
 40
63.5
100
AcDbArc
 50
284.477512
 51
293.462216
  0
ARC
  5
208
100
AcDbEntity
  8
基本作図レイヤ
  6
CONTINUOUS
 62
     2
100
AcDbCircle
 10
151.0
 20
57.0618
 30
0.0
 40
2.5
100
AcDbArc
 50
104.477512
 51
180.0
  0
LINE
  5
209
100
AcDbEntity
  8
基本作図レイヤ
  6
CONTINUOUS
 62
     2
100
AcDbLine
 10
148.5
 20
55.466025
 30
0.0
 11
148.0
 21
54.966025
 31
0.0
  0
LINE
  5
20A
100
AcDbEntity
  8
基本作図レイヤ
  6
CONTINUOUS
 62
     2
100
AcDbLine
 10
148.5
 20
57.0618
 30
0.0
 11
148.5
 21
55.466025
 31
0.0
  0
LINE
  5
20B
100
AcDbEntity
  8
基本作図レイヤ
  6
CONTINUOUS
 62
     2
100
AcDbLine
 10
148.0
 20
54.966025
 30
0.0
 11
144.0
 21
54.966025
 31
0.0
  0
ARC
  5
20C
100
AcDbEntity
  8
基本作図レイヤ
  6
CONTINUOUS
 62
     2
100
AcDbCircle
 10
134.5
 20
120.966025
 30
0.0
 40
63.5
100
AcDbArc
 50
243.190469
 51
255.522488
  0
ARC
  5
20D
100
AcDbEntity
  8
基本作図レイヤ
  6
CONTINUOUS
 62
     2
100
AcDbCircle
 10
118.0
 20
57.0618
 30
0.0
 40
2.5
100
AcDbArc
 50
0.0
 51
75.522488
  0
LINE
  5
20E
100
AcDbEntity
  8
基本作図レイヤ
  6
CONTINUOUS
 62
     2
100
AcDbLine
 10
121.0
 20
54.966025
 30
0.0
 11
125.0
 21
54.966025
 31
0.0
  0
LINE
  5
20F
100
AcDbEntity
  8
基本作図レイヤ
  6
CONTINUOUS
 62
     2
100
AcDbLine
 10
120.5
 20
55.466025
 30
0.0
 11
120.5
 21
57.0618
 31
0.0
  0
LINE
  5
210
100
AcDbEntity
  8
基本作図レイヤ
  6
CONTINUOUS
 62
     2
100
AcDbLine
 10
121.0
 20
54.966025
 30
0.0
 11
120.5
 21
55.466025
 31
0.0
  0
LINE
  5
211
100
AcDbEntity
  8
基本作図レイヤ
  6
CONTINUOUS
 62
     2
100
AcDbLine
 10
143.0
 20
58.216025
 30
0.0
 11
140.0
 21
58.216025
 31
0.0
  0
LINE
  5
212
100
AcDbEntity
  8
基本作図レイヤ
  6
CONTINUOUS
 62
     2
100
AcDbLine
 10
141.5
 20
58.216025
 30
0.0
 11
141.5
 21
57.216025
 31
0.0
  0
LINE
  5
213
100
AcDbEntity
  8
基本作図レイヤ
  6
CONTINUOUS
 62
     2
100
AcDbLine
 10
126.0
 20
58.216025
 30
0.0
 11
129.0
 21
58.216025
 31
0.0
  0
LINE
  5
214
100
AcDbEntity
  8
基本作図レイヤ
  6
CONTINUOUS
 62
     2
100
AcDbLine
 10
127.5
 20
58.216025
 30
0.0
 11
127.5
 21
57.216025
 31
0.0
  0
LINE
  5
215
100
AcDbEntity
  8
基本作図レイヤ
  6
CONTINUOUS
 62
     2
100
AcDbLine
 10
133.181843
 20
112.012549
 30
0.0
 11
125.75
 21
112.012549
 31
0.0
  0
LINE
  5
216
100
AcDbEntity
  8
基本作図レイヤ
  6
CONTINUOUS
 62
     2
100
AcDbLine
 10
136.75
 20
112.012549
 30
0.0
 11
135.818157
 21
112.012549
 31
0.0
  0
LINE
  5
217
100
AcDbEntity
  8
基本作図レイヤ
  6
CONTINUOUS
 62
     2
100
AcDbLine
 10
131.5
 20
124.612549
 30
0.0
 11
131.5
 21
126.039049
 31
0.0
  0
LINE
  5
218
100
AcDbEntity
  8
基本作図レイヤ
  6
CONTINUOUS
 62
     2
100
AcDbLine
 10
137.5
 20
124.612549
 30
0.0
 11
137.5
 21
126.039049
 31
0.0
  0
LINE
  5
219
100
AcDbEntity
  8
基本作図レイヤ
  6
CONTINUOUS
 62
     2
100
AcDbLine
 10
131.5
 20
126.039049
 30
0.0
 11
131.9735
 21
126.512549
 31
0.0
  0
LINE
  5
21A
100
AcDbEntity
  8
基本作図レイヤ
  6
CONTINUOUS
 62
     2
100
AcDbLine
 10
131.9735
 20
126.512549
 30
0.0
 11
134.5
 21
126.512549
 31
0.0
  0
LINE
  5
21B
100
AcDbEntity
  8
基本作図レイヤ
  6
CONTINUOUS
 62
     2
100
AcDbLine
 10
137.5
 20
126.039049
 30
0.0
 11
137.0265
 21
126.512549
 31
0.0
  0
LINE
  5
21C
100
AcDbEntity
  8
基本作図レイヤ
  6
CONTINUOUS
 62
     2
100
AcDbLine
 10
137.0265
 20
126.512549
 30
0.0
 11
134.5
 21
126.512549
 31
0.0
  0
LINE
  5
21D
100
AcDbEntity
  8
基本作図レイヤ
  6
CONTINUOUS
 62
     2
100
AcDbLine
 10
137.5
 20
126.039049
 30
0.0
 11
137.0265
 21
126.039049
 31
0.0
  0
LINE
  5
21E
100
AcDbEntity
  8
基本作図レイヤ
  6
CONTINUOUS
 62
     2
100
AcDbLine
 10
131.5
 20
126.039049
 30
0.0
 11
131.9735
 21
126.039049
 31
0.0
  0
LINE
  5
21F
100
AcDbEntity
  8
基本作図レイヤ
  6
CONTINUOUS
 62
     2
100
AcDbLine
 10
143.25
 20
114.868212
 30
0.0
 11
143.25
 21
110.039049
 31
0.0
  0
LINE
  5
220
100
AcDbEntity
  8
基本作図レイヤ
  6
CONTINUOUS
 62
     2
100
AcDbLine
 10
136.75
 20
112.012549
 30
0.0
 11
136.75
 21
113.512549
 31
0.0
  0
LINE
  5
221
100
AcDbEntity
  8
基本作図レイヤ
  6
CONTINUOUS
 62
     2
100
AcDbLine
 10
136.75
 20
113.512549
 30
0.0
 11
125.75
 21
113.512549
 31
0.0
  0
LINE
  5
222
100
AcDbEntity
  8
基本作図レイヤ
  6
CONTINUOUS
 62
     2
100
AcDbLine
 10
125.75
 20
114.868212
 30
0.0
 11
125.75
 21
110.039049
 31
0.0
  0
LINE
  5
223
100
AcDbEntity
  8
基本作図レイヤ
  6
CONTINUOUS
 62
     2
100
AcDbLine
 10
143.25
 20
110.012549
 30
0.0
 11
135.75
 21
110.012549
 31
0.0
  0
LINE
  5
224
100
AcDbEntity
  8
基本作図レイヤ
  6
CONTINUOUS
 62
     2
100
AcDbLine
 10
134.5
 20
110.012549
 30
0.0
 11
134.5
 21
110.012549
 31
0.0
  0
LINE
  5
225
100
AcDbEntity
  8
基本作図レイヤ
  6
CONTINUOUS
 62
     2
100
AcDbLine
 10
125.75
 20
110.012549
 30
0.0
 11
133.25
 21
110.012549
 31
0.0
  0
LINE
  5
226
100
AcDbEntity
  8
基本作図レイヤ
  6
CONTINUOUS
 62
     2
100
AcDbLine
 10
136.0
 20
110.012549
 30
0.0
 11
136.0
 21
112.012549
 31
0.0
  0
LINE
  5
227
100
AcDbEntity
  8
基本作図レイヤ
  6
CONTINUOUS
 62
     2
100
AcDbLine
 10
138.5
 20
115.512549
 30
0.0
 11
138.5
 21
115.262549
 31
0.0
  0
LINE
  5
228
100
AcDbEntity
  8
基本作図レイヤ
  6
CONTINUOUS
 62
     2
100
AcDbLine
 10
142.0
 20
115.262549
 30
0.0
 11
142.15
 21
115.522357
 31
0.0
  0
LINE
  5
229
100
AcDbEntity
  8
基本作図レイヤ
  6
CONTINUOUS
 62
     2
100
AcDbLine
 10
142.0
 20
115.262549
 30
0.0
 11
141.85
 21
115.522357
 31
0.0
  0
LINE
  5
22A
100
AcDbEntity
  8
基本作図レイヤ
  6
CONTINUOUS
 62
     2
100
AcDbLine
 10
140.25
 20
115.262549
 30
0.0
 11
140.4
 21
115.522357
 31
0.0
  0
LINE
  5
22B
100
AcDbEntity
  8
基本作図レイヤ
  6
CONTINUOUS
 62
     2
100
AcDbLine
 10
140.25
 20
115.262549
 30
0.0
 11
140.1
 21
115.522357
 31
0.0
  0
LINE
  5
22C
100
AcDbEntity
  8
基本作図レイヤ
  6
CONTINUOUS
 62
     2
100
AcDbLine
 10
138.5
 20
115.262549
 30
0.0
 11
137.75
 21
115.262549
 31
0.0
  0
ARC
  5
22D
100
AcDbEntity
  8
基本作図レイヤ
  6
CONTINUOUS
 62
     2
100
AcDbCircle
 10
137.75
 20
115.512549
 30
0.0
 40
0.25
100
AcDbArc
 50
180.0
 51
270.0
  0
LINE
  5
22E
100
AcDbEntity
  8
基本作図レイヤ
  6
CONTINUOUS
 62
     2
100
AcDbLine
 10
142.85
 20
115.512549
 30
0.0
 11
137.5
 21
115.512549
 31
0.0
  0
LINE
  5
22F
100
AcDbEntity
  8
基本作図レイヤ
  6
CONTINUOUS
 62
     2
100
AcDbLine
 10
143.0
 20
115.362549
 30
0.0
 11
143.0
 21
115.012549
 31
0.0
  0
ARC
  5
230
100
AcDbEntity
  8
基本作図レイヤ
  6
CONTINUOUS
 62
     2
100
AcDbCircle
 10
142.85
 20
115.362549
 30
0.0
 40
0.15
100
AcDbArc
 50
0.0
 51
90.0
  0
LINE
  5
231
100
AcDbEntity
  8
基本作図レイヤ
  6
CONTINUOUS
 62
     2
100
AcDbLine
 10
143.0
 20
115.012549
 30
0.0
 11
143.25
 21
114.868212
 31
0.0
  0
LINE
  5
232
100
AcDbEntity
  8
基本作図レイヤ
  6
CONTINUOUS
 62
     2
100
AcDbLine
 10
130.5
 20
115.512549
 30
0.0
 11
130.5
 21
115.262549
 31
0.0
  0
LINE
  5
233
100
AcDbEntity
  8
基本作図レイヤ
  6
CONTINUOUS
 62
     2
100
AcDbLine
 10
127.0
 20
115.262549
 30
0.0
 11
126.85
 21
115.522357
 31
0.0
  0
LINE
  5
234
100
AcDbEntity
  8
基本作図レイヤ
  6
CONTINUOUS
 62
     2
100
AcDbLine
 10
127.0
 20
115.262549
 30
0.0
 11
127.15
 21
115.522357
 31
0.0
  0
LINE
  5
235
100
AcDbEntity
  8
基本作図レイヤ
  6
CONTINUOUS
 62
     2
100
AcDbLine
 10
128.75
 20
115.262549
 30
0.0
 11
128.6
 21
115.522357
 31
0.0
  0
LINE
  5
236
100
AcDbEntity
  8
基本作図レイヤ
  6
CONTINUOUS
 62
     2
100
AcDbLine
 10
128.75
 20
115.262549
 30
0.0
 11
128.9
 21
115.522357
 31
0.0
  0
LINE
  5
237
100
AcDbEntity
  8
基本作図レイヤ
  6
CONTINUOUS
 62
     2
100
AcDbLine
 10
130.5
 20
115.262549
 30
0.0
 11
131.25
 21
115.262549
 31
0.0
  0
ARC
  5
238
100
AcDbEntity
  8
基本作図レイヤ
  6
CONTINUOUS
 62
     2
100
AcDbCircle
 10
131.25
 20
115.512549
 30
0.0
 40
0.25
100
AcDbArc
 50
270.0
 51
0.0
  0
LINE
  5
239
100
AcDbEntity
  8
基本作図レイヤ
  6
CONTINUOUS
 62
     2
100
AcDbLine
 10
126.15
 20
115.512549
 30
0.0
 11
131.5
 21
115.512549
 31
0.0
  0
ARC
  5
23A
100
AcDbEntity
  8
基本作図レイヤ
  6
CONTINUOUS
 62
     2
100
AcDbCircle
 10
126.15
 20
115.362549
 30
0.0
 40
0.15
100
AcDbArc
 50
90.0
 51
180.0
  0
LINE
  5
23B
100
AcDbEntity
  8
基本作図レイヤ
  6
CONTINUOUS
 62
     2
100
AcDbLine
 10
126.0
 20
115.362549
 30
0.0
 11
126.0
 21
115.012549
 31
0.0
  0
LINE
  5
23C
100
AcDbEntity
  8
基本作図レイヤ
  6
CONTINUOUS
 62
     2
100
AcDbLine
 10
126.0
 20
115.012549
 30
0.0
 11
125.75
 21
114.868212
 31
0.0
  0
LINE
  5
23D
100
AcDbEntity
  8
基本作図レイヤ
  6
CONTINUOUS
 62
     2
100
AcDbLine
 10
131.5
 20
115.512549
 30
0.0
 11
131.5
 21
117.762549
 31
0.0
  0
LINE
  5
23E
100
AcDbEntity
  8
基本作図レイヤ
  6
CONTINUOUS
 62
     2
100
AcDbLine
 10
137.5
 20
115.512549
 30
0.0
 11
137.5
 21
117.762549
 31
0.0
  0
LINE
  5
23F
100
AcDbEntity
  8
基本作図レイヤ
  6
CONTINUOUS
 62
     2
100
AcDbLine
 10
128.48575
 20
221.247531
 30
0.0
 11
128.48575
 21
224.76926
 31
0.0
  0
LINE
  5
240
100
AcDbEntity
  8
基本作図レイヤ
  6
CONTINUOUS
 62
     2
100
AcDbLine
 10
128.48575
 20
220.243816
 30
0.0
 11
128.48575
 21
220.248512
 31
0.0
  0
LINE
  5
241
100
AcDbEntity
  8
基本作図レイヤ
  6
CONTINUOUS
 62
     2
100
AcDbLine
 10
128.48575
 20
216.183539
 30
0.0
 11
128.48575
 21
216.188235
 31
0.0
  0
LINE
  5
242
100
AcDbEntity
  8
基本作図レイヤ
  6
CONTINUOUS
 62
     2
100
AcDbLine
 10
128.48575
 20
206.665826
 30
0.0
 11
128.48575
 21
215.18452
 31
0.0
  0
LINE
  5
243
100
AcDbEntity
  8
基本作図レイヤ
  6
CONTINUOUS
 62
     2
100
AcDbLine
 10
129.0
 20
215.966025
 30
0.0
 11
128.15
 21
216.325551
 31
0.0
  0
ARC
  5
244
100
AcDbEntity
  8
基本作図レイヤ
  6
CONTINUOUS
 62
     2
100
AcDbCircle
 10
129.7375
 20
219.602816
 30
0.0
 40
3.63679
100
AcDbArc
 50
247.07303
 51
295.881497
  0
LINE
  5
245
100
AcDbEntity
  8
基本作図レイヤ
  6
CONTINUOUS
 62
     2
100
AcDbLine
 10
128.48575
 20
216.183539
 30
0.0
 11
128.48575
 21
216.188235
 31
0.0
  0
LINE
  5
246
100
AcDbEntity
  8
基本作図レイヤ
  6
CONTINUOUS
 62
     2
100
AcDbLine
 10
128.48575
 20
216.188235
 30
0.0
 11
128.48575
 21
216.183539
 31
0.0
  0
ARC
  5
247
100
AcDbEntity
  8
基本作図レイヤ
  6
CONTINUOUS
 62
     2
100
AcDbCircle
 10
129.15
 20
216.325551
 30
0.0
 40
1.0
100
AcDbArc
 50
180.0
 51
206.810344
  0
LINE
  5
248
100
AcDbEntity
  8
基本作図レイヤ
  6
CONTINUOUS
 62
     2
100
AcDbLine
 10
128.378254
 20
215.635559
 30
0.0
 11
128.257496
 21
215.874512
 31
0.0
  0
ARC
  5
249
100
AcDbEntity
  8
基本作図レイヤ
  6
CONTINUOUS
 62
     2
100
AcDbCircle
 10
127.48575
 20
215.18452
 30
0.0
 40
1.0
100
AcDbArc
 50
0.0
 51
26.810344
  0
ARC
  5
24A
100
AcDbEntity
  8
基本作図レイヤ
  6
CONTINUOUS
 62
     2
100
AcDbCircle
 10
139.2625
 20
219.602816
 30
0.0
 40
3.63679
100
AcDbArc
 50
244.118503
 51
295.881497
  0
LINE
  5
24B
100
AcDbEntity
  8
基本作図レイヤ
  6
CONTINUOUS
 62
     2
100
AcDbLine
 10
140.0
 20
215.966025
 30
0.0
 11
140.85
 21
216.325551
 31
0.0
  0
LINE
  5
24C
100
AcDbEntity
  8
基本作図レイヤ
  6
CONTINUOUS
 62
     2
100
AcDbLine
 10
140.51425
 20
216.183539
 30
0.0
 11
140.51425
 21
216.188235
 31
0.0
  0
LINE
  5
24D
100
AcDbEntity
  8
基本作図レイヤ
  6
CONTINUOUS
 62
     2
100
AcDbLine
 10
140.51425
 20
206.665826
 30
0.0
 11
140.51425
 21
215.18452
 31
0.0
  0
LINE
  5
24E
100
AcDbEntity
  8
基本作図レイヤ
  6
CONTINUOUS
 62
     2
100
AcDbLine
 10
140.51425
 20
216.188235
 30
0.0
 11
140.51425
 21
216.183539
 31
0.0
  0
ARC
  5
24F
100
AcDbEntity
  8
基本作図レイヤ
  6
CONTINUOUS
 62
     2
100
AcDbCircle
 10
139.85
 20
216.325551
 30
0.0
 40
1.0
100
AcDbArc
 50
333.189656
 51
0.0
  0
LINE
  5
250
100
AcDbEntity
  8
基本作図レイヤ
  6
CONTINUOUS
 62
     2
100
AcDbLine
 10
140.621746
 20
215.635559
 30
0.0
 11
140.742504
 21
215.874512
 31
0.0
  0
ARC
  5
251
100
AcDbEntity
  8
基本作図レイヤ
  6
CONTINUOUS
 62
     2
100
AcDbCircle
 10
141.51425
 20
215.18452
 30
0.0
 40
1.0
100
AcDbArc
 50
153.189656
 51
180.0
  0
LINE
  5
252
100
AcDbEntity
  8
基本作図レイヤ
  6
CONTINUOUS
 62
     2
100
AcDbLine
 10
128.48575
 20
220.243816
 30
0.0
 11
128.48575
 21
220.248512
 31
0.0
  0
ARC
  5
253
100
AcDbEntity
  8
基本作図レイヤ
  6
CONTINUOUS
 62
     2
100
AcDbCircle
 10
129.15
 20
220.1065
 30
0.0
 40
1.0
100
AcDbArc
 50
153.189656
 51
180.0
  0
LINE
  5
254
100
AcDbEntity
  8
基本作図レイヤ
  6
CONTINUOUS
 62
     2
100
AcDbLine
 10
128.378254
 20
220.796492
 30
0.0
 11
128.257496
 21
220.557538
 31
0.0
  0
ARC
  5
255
100
AcDbEntity
  8
基本作図レイヤ
  6
CONTINUOUS
 62
     2
100
AcDbCircle
 10
127.48575
 20
221.247531
 30
0.0
 40
1.0
100
AcDbArc
 50
333.189656
 51
0.0
  0
LINE
  5
256
100
AcDbEntity
  8
基本作図レイヤ
  6
CONTINUOUS
 62
     2
100
AcDbLine
 10
140.51425
 20
220.243816
 30
0.0
 11
140.51425
 21
220.248512
 31
0.0
  0
LINE
  5
257
100
AcDbEntity
  8
基本作図レイヤ
  6
CONTINUOUS
 62
     2
100
AcDbLine
 10
140.51425
 20
221.247531
 30
0.0
 11
140.51425
 21
224.76926
 31
0.0
  0
ARC
  5
258
100
AcDbEntity
  8
基本作図レイヤ
  6
CONTINUOUS
 62
     2
100
AcDbCircle
 10
139.85
 20
220.1065
 30
0.0
 40
1.0
100
AcDbArc
 50
0.0
 51
26.810344
  0
LINE
  5
259
100
AcDbEntity
  8
基本作図レイヤ
  6
CONTINUOUS
 62
     2
100
AcDbLine
 10
140.621746
 20
220.796492
 30
0.0
 11
140.742504
 21
220.557538
 31
0.0
  0
ARC
  5
25A
100
AcDbEntity
  8
基本作図レイヤ
  6
CONTINUOUS
 62
     2
100
AcDbCircle
 10
141.51425
 20
221.247531
 30
0.0
 40
1.0
100
AcDbArc
 50
180.0
 51
206.810344
  0
LINE
  5
25B
100
AcDbEntity
  8
基本作図レイヤ
  6
CONTINUOUS
 62
     2
100
AcDbLine
 10
140.85
 20
220.1065
 30
0.0
 11
140.85
 21
216.325551
 31
0.0
  0
LINE
  5
25C
100
AcDbEntity
  8
基本作図レイヤ
  6
CONTINUOUS
 62
     2
100
AcDbLine
 10
140.0
 20
220.466025
 30
0.0
 11
140.85
 21
220.1065
 31
0.0
  0
ARC
  5
25D
100
AcDbEntity
  8
基本作図レイヤ
  6
CONTINUOUS
 62
     2
100
AcDbCircle
 10
139.2625
 20
216.829235
 30
0.0
 40
3.63679
100
AcDbArc
 50
64.118503
 51
115.881497
  0
LINE
  5
25E
100
AcDbEntity
  8
基本作図レイヤ
  6
CONTINUOUS
 62
     2
100
AcDbLine
 10
125.0
 20
199.308028
 30
0.0
 11
127.689317
 21
199.308028
 31
0.0
  0
LINE
  5
25F
100
AcDbEntity
  8
基本作図レイヤ
  6
CONTINUOUS
 62
     2
100
AcDbLine
 10
144.0
 20
199.308028
 30
0.0
 11
141.339317
 21
199.308028
 31
0.0
  0
LINE
  5
260
100
AcDbEntity
  8
基本作図レイヤ
  6
CONTINUOUS
 62
     2
100
AcDbLine
 10
127.46
 20
205.558028
 30
0.0
 11
130.589317
 21
205.558028
 31
0.0
  0
LINE
  5
261
100
AcDbEntity
  8
基本作図レイヤ
  6
CONTINUOUS
 62
     2
100
AcDbLine
 10
141.54
 20
205.558028
 30
0.0
 11
138.589317
 21
205.558028
 31
0.0
  0
LINE
  5
262
100
AcDbEntity
  8
基本作図レイヤ
  6
CONTINUOUS
 62
     2
100
AcDbLine
 10
128.48575
 20
206.665826
 30
0.0
 11
130.539317
 21
206.665826
 31
0.0
  0
LINE
  5
263
100
AcDbEntity
  8
基本作図レイヤ
  6
CONTINUOUS
 62
     2
100
AcDbLine
 10
140.51425
 20
206.665826
 30
0.0
 11
138.439317
 21
206.665826
 31
0.0
  0
ARC
  5
264
100
AcDbEntity
  8
基本作図レイヤ
  6
CONTINUOUS
 62
     2
100
AcDbCircle
 10
129.48575
 20
224.76926
 30
0.0
 40
1.0
100
AcDbArc
 50
104.51968
 51
180.0
  0
ARC
  5
265
100
AcDbEntity
  8
基本作図レイヤ
  6
CONTINUOUS
 62
     2
100
AcDbCircle
 10
134.5
 20
205.408028
 30
0.0
 40
21.0
100
AcDbArc
 50
75.48032
 51
104.51968
  0
ARC
  5
266
100
AcDbEntity
  8
基本作図レイヤ
  6
CONTINUOUS
 62
     2
100
AcDbCircle
 10
139.51425
 20
224.76926
 30
0.0
 40
1.0
100
AcDbArc
 50
0.0
 51
75.48032
  0
ARC
  5
267
100
AcDbEntity
  8
基本作図レイヤ
  6
CONTINUOUS
 62
     2
100
AcDbCircle
 10
128.35122
 20
225.387682
 30
0.0
 40
1.0
100
AcDbArc
 50
107.025607
 51
180.0
  0
LINE
  5
268
100
AcDbEntity
  8
基本作図レイヤ
  6
CONTINUOUS
 62
     2
100
AcDbLine
 10
127.35122
 20
225.387682
 30
0.0
 11
127.35122
 21
207.088711
 31
0.0
  0
ARC
  5
269
100
AcDbEntity
  8
基本作図レイヤ
  6
CONTINUOUS
 62
     2
100
AcDbCircle
 10
134.5
 20
205.308028
 30
0.0
 40
22.0
100
AcDbArc
 50
72.974393
 51
107.025607
  0
ARC
  5
26A
100
AcDbEntity
  8
基本作図レイヤ
  6
CONTINUOUS
 62
     2
100
AcDbCircle
 10
140.64878
 20
225.387682
 30
0.0
 40
1.0
100
AcDbArc
 50
0.0
 51
72.974393
  0
LINE
  5
26B
100
AcDbEntity
  8
基本作図レイヤ
  6
CONTINUOUS
 62
     2
100
AcDbLine
 10
141.64878
 20
225.387682
 30
0.0
 11
141.64878
 21
207.088711
 31
0.0
  0
ARC
  5
26C
100
AcDbEntity
  8
基本作図レイヤ
  6
CONTINUOUS
 62
     2
100
AcDbCircle
 10
143.689976
 20
198.807488
 30
0.0
 40
1.75
100
AcDbArc
 50
2.0
 51
60.0
  0
LINE
  5
26D
100
AcDbEntity
  8
基本作図レイヤ
  6
CONTINUOUS
 62
     2
100
AcDbLine
 10
145.602709
 20
194.177968
 30
0.0
 11
145.43891
 21
198.868562
 31
0.0
  0
LINE
  5
26E
100
AcDbEntity
  8
基本作図レイヤ
  6
CONTINUOUS
 62
     2
100
AcDbLine
 10
144.564976
 20
200.323033
 30
0.0
 11
143.15
 21
201.139969
 31
0.0
  0
LINE
  5
26F
100
AcDbEntity
  8
基本作図レイヤ
  6
CONTINUOUS
 62
     2
100
AcDbLine
 10
140.730757
 20
206.290826
 30
0.0
 11
141.625
 21
205.774535
 31
0.0
  0
LINE
  5
270
100
AcDbEntity
  8
基本作図レイヤ
  6
CONTINUOUS
 62
     2
100
AcDbLine
 10
142.0
 20
201.053367
 30
0.0
 11
142.0
 21
205.125016
 31
0.0
  0
LINE
  5
271
100
AcDbEntity
  8
基本作図レイヤ
  6
CONTINUOUS
 62
     2
100
AcDbLine
 10
140.730757
 20
206.290826
 30
0.0
 11
141.625
 21
205.774535
 31
0.0
  0
LINE
  5
272
100
AcDbEntity
  8
基本作図レイヤ
  6
CONTINUOUS
 62
     2
100
AcDbLine
 10
142.0
 20
201.053367
 30
0.0
 11
142.0
 21
205.125016
 31
0.0
  0
LINE
  5
273
100
AcDbEntity
  8
基本作図レイヤ
  6
CONTINUOUS
 62
     2
100
AcDbLine
 10
140.51425
 20
206.665826
 30
0.0
 11
140.730757
 21
206.290826
 31
0.0
  0
ARC
  5
274
100
AcDbEntity
  8
基本作図レイヤ
  6
CONTINUOUS
 62
     2
100
AcDbCircle
 10
143.787981
 20
198.866375
 30
0.0
 40
0.75
100
AcDbArc
 50
2.0
 51
60.0
  0
LINE
  5
275
100
AcDbEntity
  8
基本作図レイヤ
  6
CONTINUOUS
 62
     2
100
AcDbLine
 10
144.728753
 20
193.416451
 30
0.0
 11
144.537524
 21
198.89255
 31
0.0
  0
ARC
  5
276
100
AcDbEntity
  8
基本作図レイヤ
  6
CONTINUOUS
 62
     2
100
AcDbCircle
 10
145.478297
 20
193.442626
 30
0.0
 40
0.75
100
AcDbArc
 50
182.0
 51
260.134193
  0
LINE
  5
277
100
AcDbEntity
  8
基本作図レイヤ
  6
CONTINUOUS
 62
     2
100
AcDbLine
 10
147.625
 20
192.308028
 30
0.0
 11
145.349791
 21
192.703717
 31
0.0
  0
ARC
  5
278
100
AcDbEntity
  8
基本作図レイヤ
  6
CONTINUOUS
 62
     2
100
AcDbCircle
 10
142.14878
 20
207.088711
 30
0.0
 40
0.5
100
AcDbArc
 50
180.0
 51
240.0
  0
LINE
  5
279
100
AcDbEntity
  8
基本作図レイヤ
  6
CONTINUOUS
 62
     2
100
AcDbLine
 10
142.4
 20
206.366319
 30
0.0
 11
141.89878
 21
206.655698
 31
0.0
  0
ARC
  5
27A
100
AcDbEntity
  8
基本作図レイヤ
  6
CONTINUOUS
 62
     2
100
AcDbCircle
 10
141.25
 20
205.125016
 30
0.0
 40
0.75
100
AcDbArc
 50
0.0
 51
60.0
  0
LINE
  5
27B
100
AcDbEntity
  8
基本作図レイヤ
  6
CONTINUOUS
 62
     2
100
AcDbLine
 10
142.0
 20
201.053367
 30
0.0
 11
142.0
 21
205.125016
 31
0.0
  0
ARC
  5
27C
100
AcDbEntity
  8
基本作図レイヤ
  6
CONTINUOUS
 62
     2
100
AcDbCircle
 10
141.9
 20
205.500293
 30
0.0
 40
1.0
100
AcDbArc
 50
0.0
 51
60.0
  0
LINE
  5
27D
100
AcDbEntity
  8
基本作図レイヤ
  6
CONTINUOUS
 62
     2
100
AcDbLine
 10
142.9
 20
201.572982
 30
0.0
 11
142.9
 21
205.500293
 31
0.0
  0
ARC
  5
27E
100
AcDbEntity
  8
基本作図レイヤ
  6
CONTINUOUS
 62
     2
100
AcDbCircle
 10
142.5
 20
201.053367
 30
0.0
 40
0.5
100
AcDbArc
 50
180.0
 51
240.0
  0
LINE
  5
27F
100
AcDbEntity
  8
基本作図レイヤ
  6
CONTINUOUS
 62
     2
100
AcDbLine
 10
144.162981
 20
199.515894
 30
0.0
 11
142.25
 21
200.620354
 31
0.0
  0
ARC
  5
280
100
AcDbEntity
  8
基本作図レイヤ
  6
CONTINUOUS
 62
     2
100
AcDbCircle
 10
143.4
 20
201.572982
 30
0.0
 40
0.5
100
AcDbArc
 50
180.0
 51
240.0
  0
ARC
  5
281
100
AcDbEntity
  8
基本作図レイヤ
  6
CONTINUOUS
 62
     2
100
AcDbCircle
 10
146.352252
 20
194.204143
 30
0.0
 40
0.75
100
AcDbArc
 50
182.0
 51
260.134193
  0
LINE
  5
282
100
AcDbEntity
  8
基本作図レイヤ
  6
CONTINUOUS
 62
     2
100
AcDbLine
 10
146.796341
 20
193.365652
 30
0.0
 11
146.223746
 21
193.465234
 31
0.0
  0
LINE
  5
283
100
AcDbEntity
  8
基本作図レイヤ
  6
CONTINUOUS
 62
     2
100
AcDbLine
 10
147.625
 20
192.38044
 30
0.0
 11
147.625
 21
192.308028
 31
0.0
  0
ARC
  5
284
100
AcDbEntity
  8
基本作図レイヤ
  6
CONTINUOUS
 62
     2
100
AcDbCircle
 10
146.625
 20
192.38044
 30
0.0
 40
1.0
100
AcDbArc
 50
0.0
 51
80.134193
  0
ARC
  5
285
100
AcDbEntity
  8
基本作図レイヤ
  6
CONTINUOUS
 62
     2
100
AcDbCircle
 10
143.787981
 20
198.866375
 30
0.0
 40
0.75
100
AcDbArc
 50
2.0
 51
60.0
  0
LINE
  5
286
100
AcDbEntity
  8
基本作図レイヤ
  6
CONTINUOUS
 62
     2
100
AcDbLine
 10
144.728753
 20
193.416451
 30
0.0
 11
144.537524
 21
198.89255
 31
0.0
  0
ARC
  5
287
100
AcDbEntity
  8
基本作図レイヤ
  6
CONTINUOUS
 62
     2
100
AcDbCircle
 10
145.478297
 20
193.442626
 30
0.0
 40
0.75
100
AcDbArc
 50
182.0
 51
260.134193
  0
LINE
  5
288
100
AcDbEntity
  8
基本作図レイヤ
  6
CONTINUOUS
 62
     2
100
AcDbLine
 10
147.625
 20
192.308028
 30
0.0
 11
145.349791
 21
192.703717
 31
0.0
  0
LINE
  5
289
100
AcDbEntity
  8
基本作図レイヤ
  6
CONTINUOUS
 62
     2
100
AcDbLine
 10
127.0
 20
201.053367
 30
0.0
 11
127.0
 21
205.125016
 31
0.0
  0
LINE
  5
28A
100
AcDbEntity
  8
基本作図レイヤ
  6
CONTINUOUS
 62
     2
100
AcDbLine
 10
128.269243
 20
206.290826
 30
0.0
 11
127.375
 21
205.774535
 31
0.0
  0
LINE
  5
28B
100
AcDbEntity
  8
基本作図レイヤ
  6
CONTINUOUS
 62
     2
100
AcDbLine
 10
127.0
 20
201.053367
 30
0.0
 11
127.0
 21
205.125016
 31
0.0
  0
LINE
  5
28C
100
AcDbEntity
  8
基本作図レイヤ
  6
CONTINUOUS
 62
     2
100
AcDbLine
 10
128.48575
 20
206.665826
 30
0.0
 11
128.269243
 21
206.290826
 31
0.0
  0
ARC
  5
28D
100
AcDbEntity
  8
基本作図レイヤ
  6
CONTINUOUS
 62
     2
100
AcDbCircle
 10
125.212019
 20
198.866375
 30
0.0
 40
0.75
100
AcDbArc
 50
120.0
 51
178.0
  0
LINE
  5
28E
100
AcDbEntity
  8
基本作図レイヤ
  6
CONTINUOUS
 62
     2
100
AcDbLine
 10
124.271247
 20
193.416451
 30
0.0
 11
124.462476
 21
198.89255
 31
0.0
  0
ARC
  5
28F
100
AcDbEntity
  8
基本作図レイヤ
  6
CONTINUOUS
 62
     2
100
AcDbCircle
 10
123.521703
 20
193.442626
 30
0.0
 40
0.75
100
AcDbArc
 50
279.865807
 51
358.0
  0
LINE
  5
290
100
AcDbEntity
  8
基本作図レイヤ
  6
CONTINUOUS
 62
     2
100
AcDbLine
 10
121.375
 20
192.308028
 30
0.0
 11
123.650209
 21
192.703717
 31
0.0
  0
LINE
  5
291
100
AcDbEntity
  8
基本作図レイヤ
  6
CONTINUOUS
 62
     2
100
AcDbLine
 10
140.51425
 20
206.665826
 30
0.0
 11
140.730757
 21
206.290826
 31
0.0
  0
ARC
  5
292
100
AcDbEntity
  8
基本作図レイヤ
  6
CONTINUOUS
 62
     2
100
AcDbCircle
 10
126.85122
 20
207.088711
 30
0.0
 40
0.5
100
AcDbArc
 50
300.0
 51
0.0
  0
LINE
  5
293
100
AcDbEntity
  8
基本作図レイヤ
  6
CONTINUOUS
 62
     2
100
AcDbLine
 10
126.6
 20
206.366319
 30
0.0
 11
127.10122
 21
206.655698
 31
0.0
  0
ARC
  5
294
100
AcDbEntity
  8
基本作図レイヤ
  6
CONTINUOUS
 62
     2
100
AcDbCircle
 10
127.75
 20
205.125016
 30
0.0
 40
0.75
100
AcDbArc
 50
120.0
 51
180.0
  0
LINE
  5
295
100
AcDbEntity
  8
基本作図レイヤ
  6
CONTINUOUS
 62
     2
100
AcDbLine
 10
127.0
 20
201.053367
 30
0.0
 11
127.0
 21
205.125016
 31
0.0
  0
ARC
  5
296
100
AcDbEntity
  8
基本作図レイヤ
  6
CONTINUOUS
 62
     2
100
AcDbCircle
 10
127.1
 20
205.500293
 30
0.0
 40
1.0
100
AcDbArc
 50
120.0
 51
180.0
  0
LINE
  5
297
100
AcDbEntity
  8
基本作図レイヤ
  6
CONTINUOUS
 62
     2
100
AcDbLine
 10
126.1
 20
201.572982
 30
0.0
 11
126.1
 21
205.500293
 31
0.0
  0
ARC
  5
298
100
AcDbEntity
  8
基本作図レイヤ
  6
CONTINUOUS
 62
     2
100
AcDbCircle
 10
126.5
 20
201.053367
 30
0.0
 40
0.5
100
AcDbArc
 50
300.0
 51
0.0
  0
LINE
  5
299
100
AcDbEntity
  8
基本作図レイヤ
  6
CONTINUOUS
 62
     2
100
AcDbLine
 10
124.837019
 20
199.515894
 30
0.0
 11
126.75
 21
200.620354
 31
0.0
  0
ARC
  5
29A
100
AcDbEntity
  8
基本作図レイヤ
  6
CONTINUOUS
 62
     2
100
AcDbCircle
 10
125.6
 20
201.572982
 30
0.0
 40
0.5
100
AcDbArc
 50
300.0
 51
0.0
  0
LINE
  5
29B
100
AcDbEntity
  8
基本作図レイヤ
  6
CONTINUOUS
 62
     2
100
AcDbLine
 10
124.387019
 20
200.295317
 30
0.0
 11
125.85
 21
201.139969
 31
0.0
  0
ARC
  5
29C
100
AcDbEntity
  8
基本作図レイヤ
  6
CONTINUOUS
 62
     2
100
AcDbCircle
 10
122.647748
 20
194.204143
 30
0.0
 40
0.75
100
AcDbArc
 50
279.865807
 51
358.0
  0
LINE
  5
29D
100
AcDbEntity
  8
基本作図レイヤ
  6
CONTINUOUS
 62
     2
100
AcDbLine
 10
122.203659
 20
193.365652
 30
0.0
 11
122.776254
 21
193.465234
 31
0.0
  0
LINE
  5
29E
100
AcDbEntity
  8
基本作図レイヤ
  6
CONTINUOUS
 62
     2
100
AcDbLine
 10
123.397291
 20
194.177968
 30
0.0
 11
123.563024
 21
198.923959
 31
0.0
  0
LINE
  5
29F
100
AcDbEntity
  8
基本作図レイヤ
  6
CONTINUOUS
 62
     2
100
AcDbLine
 10
121.375
 20
192.38044
 30
0.0
 11
121.375
 21
192.308028
 31
0.0
  0
ARC
  5
2A0
100
AcDbEntity
  8
基本作図レイヤ
  6
CONTINUOUS
 62
     2
100
AcDbCircle
 10
122.375
 20
192.38044
 30
0.0
 40
1.0
100
AcDbArc
 50
99.865807
 51
180.0
  0
ARC
  5
2A1
100
AcDbEntity
  8
基本作図レイヤ
  6
CONTINUOUS
 62
     2
100
AcDbCircle
 10
125.212019
 20
198.866375
 30
0.0
 40
1.65
100
AcDbArc
 50
120.0
 51
178.0
  0
ARC
  5
2A2
100
AcDbEntity
  8
基本作図レイヤ
  6
CONTINUOUS
 62
     2
100
AcDbCircle
 10
125.212019
 20
198.866375
 30
0.0
 40
0.75
100
AcDbArc
 50
120.0
 51
178.0
  0
LINE
  5
2A3
100
AcDbEntity
  8
基本作図レイヤ
  6
CONTINUOUS
 62
     2
100
AcDbLine
 10
124.271247
 20
193.416451
 30
0.0
 11
124.462476
 21
198.89255
 31
0.0
  0
ARC
  5
2A4
100
AcDbEntity
  8
基本作図レイヤ
  6
CONTINUOUS
 62
     2
100
AcDbCircle
 10
123.521703
 20
193.442626
 30
0.0
 40
0.75
100
AcDbArc
 50
279.865807
 51
358.0
  0
LINE
  5
2A5
100
AcDbEntity
  8
基本作図レイヤ
  6
CONTINUOUS
 62
     2
100
AcDbLine
 10
121.375
 20
192.308028
 30
0.0
 11
123.650209
 21
192.703717
 31
0.0
  0
LINE
  5
2A6
100
AcDbEntity
  8
基本作図レイヤ
  6
CONTINUOUS
 62
     2
100
AcDbLine
 10
179.416846
 20
116.012549
 30
0.0
 11
168.332615
 21
116.012549
 31
0.0
  0
LINE
  5
2A7
100
AcDbEntity
  8
基本作図レイヤ
  6
CONTINUOUS
 62
     2
100
AcDbLine
 10
137.5
 20
116.012549
 30
0.0
 11
159.508154
 21
116.012549
 31
0.0
  0
ARC
  5
2A8
100
AcDbEntity
  8
基本作図レイヤ
  6
CONTINUOUS
 62
     2
100
AcDbCircle
 10
168.332615
 20
117.012549
 30
0.0
 40
1.0
100
AcDbArc
 50
225.596711
 51
270.0
  0
ARC
  5
2A9
100
AcDbEntity
  8
基本作図レイヤ
  6
CONTINUOUS
 62
     2
100
AcDbCircle
 10
168.3391
 20
117.012549
 30
0.0
 40
1.5
100
AcDbArc
 50
230.349768
 51
270.0
  0
ARC
  5
2AA
100
AcDbEntity
  8
基本作図レイヤ
  6
CONTINUOUS
 62
     2
100
AcDbCircle
 10
159.508154
 20
118.512549
 30
0.0
 40
3.0
100
AcDbArc
 50
270.0
 51
305.612101
  0
ARC
  5
2AB
100
AcDbEntity
  8
基本作図レイヤ
  6
CONTINUOUS
 62
     2
100
AcDbCircle
 10
164.178413
 20
111.992111
 30
0.0
 40
5.520438
100
AcDbArc
 50
50.349768
 51
125.612101
  0
ARC
  5
2AC
100
AcDbEntity
  8
基本作図レイヤ
  6
CONTINUOUS
 62
     2
100
AcDbCircle
 10
164.178413
 20
111.992111
 30
0.0
 40
5.020438
100
AcDbArc
 50
50.349768
 51
125.612101
  0
LINE
  5
2AD
100
AcDbEntity
  8
基本作図レイヤ
  6
CONTINUOUS
 62
     2
100
AcDbLine
 10
159.508154
 20
115.512549
 30
0.0
 11
179.433154
 21
115.512549
 31
0.0
  0
LINE
  5
2AE
100
AcDbEntity
  8
基本作図レイヤ
  6
CONTINUOUS
 62
     2
100
AcDbLine
 10
142.85
 20
115.512549
 30
0.0
 11
159.508154
 21
115.512549
 31
0.0
  0
LINE
  5
2AF
100
AcDbEntity
  8
基本作図レイヤ
  6
CONTINUOUS
 62
     2
100
AcDbLine
 10
109.491846
 20
115.512549
 30
0.0
 11
89.566846
 21
115.512549
 31
0.0
  0
ARC
  5
2B0
100
AcDbEntity
  8
基本作図レイヤ
  6
CONTINUOUS
 62
     2
100
AcDbCircle
 10
100.667385
 20
117.012549
 30
0.0
 40
1.0
100
AcDbArc
 50
270.0
 51
314.403289
  0
LINE
  5
2B1
100
AcDbEntity
  8
基本作図レイヤ
  6
CONTINUOUS
 62
     2
100
AcDbLine
 10
131.5
 20
116.012549
 30
0.0
 11
109.491846
 21
116.012549
 31
0.0
  0
LINE
  5
2B2
100
AcDbEntity
  8
基本作図レイヤ
  6
CONTINUOUS
 62
     2
100
AcDbLine
 10
126.15
 20
115.512549
 30
0.0
 11
109.491846
 21
115.512549
 31
0.0
  0
LINE
  5
2B3
100
AcDbEntity
  8
基本作図レイヤ
  6
CONTINUOUS
 62
     2
100
AcDbLine
 10
109.491846
 20
116.012549
 30
0.0
 11
131.5
 21
116.012549
 31
0.0
  0
ARC
  5
2B4
100
AcDbEntity
  8
基本作図レイヤ
  6
CONTINUOUS
 62
     2
100
AcDbCircle
 10
100.6609
 20
117.012549
 30
0.0
 40
1.5
100
AcDbArc
 50
270.0
 51
309.650232
  0
LINE
  5
2B5
100
AcDbEntity
  8
基本作図レイヤ
  6
CONTINUOUS
 62
     2
100
AcDbLine
 10
100.667385
 20
116.012549
 30
0.0
 11
98.85
 21
116.012549
 31
0.0
  0
LINE
  5
2B6
100
AcDbEntity
  8
基本作図レイヤ
  6
CONTINUOUS
 62
     2
100
AcDbLine
 10
89.566846
 20
116.012549
 30
0.0
 11
100.667385
 21
116.012549
 31
0.0
  0
ARC
  5
2B7
100
AcDbEntity
  8
基本作図レイヤ
  6
CONTINUOUS
 62
     2
100
AcDbCircle
 10
109.491846
 20
118.512549
 30
0.0
 40
3.0
100
AcDbArc
 50
234.387899
 51
270.0
  0
ARC
  5
2B8
100
AcDbEntity
  8
基本作図レイヤ
  6
CONTINUOUS
 62
     2
100
AcDbCircle
 10
104.821587
 20
111.992111
 30
0.0
 40
5.020438
100
AcDbArc
 50
54.387899
 51
129.650232
  0
ARC
  5
2B9
100
AcDbEntity
  8
基本作図レイヤ
  6
CONTINUOUS
 62
     2
100
AcDbCircle
 10
104.821587
 20
111.992111
 30
0.0
 40
5.520438
100
AcDbArc
 50
54.387899
 51
129.650232
  0
LINE
  5
2BA
100
AcDbEntity
  8
基本作図レイヤ
  6
CONTINUOUS
 62
     2
100
AcDbLine
 10
139.975
 20
123.012549
 30
0.0
 11
144.5
 21
123.012549
 31
0.0
  0
LINE
  5
2BB
100
AcDbEntity
  8
基本作図レイヤ
  6
CONTINUOUS
 62
     2
100
AcDbLine
 10
148.5
 20
123.012549
 30
0.0
 11
155.85
 21
123.012549
 31
0.0
  0
LINE
  5
2BC
100
AcDbEntity
  8
基本作図レイヤ
  6
CONTINUOUS
 62
     2
100
AcDbLine
 10
106.636472
 20
123.012549
 30
0.0
 11
120.5
 21
123.012549
 31
0.0
  0
LINE
  5
2BD
100
AcDbEntity
  8
基本作図レイヤ
  6
CONTINUOUS
 62
     2
100
AcDbLine
 10
124.5
 20
123.012549
 30
0.0
 11
129.025
 21
123.012549
 31
0.0
  0
LINE
  5
2BE
100
AcDbEntity
  8
基本作図レイヤ
  6
CONTINUOUS
 62
     2
100
AcDbLine
 10
106.636472
 20
125.012549
 30
0.0
 11
109.472781
 21
125.012549
 31
0.0
  0
ARC
  5
2BF
100
AcDbEntity
  8
基本作図レイヤ
  6
CONTINUOUS
 62
     2
100
AcDbCircle
 10
100.6609
 20
117.012549
 30
0.0
 40
1.0
100
AcDbArc
 50
270.0
 51
350.0
  0
ARC
  5
2C0
100
AcDbEntity
  8
基本作図レイヤ
  6
CONTINUOUS
 62
     2
100
AcDbCircle
 10
105.73803
 20
117.012531
 30
0.0
 40
4.0
100
AcDbArc
 50
112.896866
 51
170.0
  0
ARC
  5
2C1
100
AcDbEntity
  8
基本作図レイヤ
  6
CONTINUOUS
 62
     2
100
AcDbCircle
 10
103.461529
 20
122.013148
 30
0.0
 40
1.5
100
AcDbArc
 50
294.605014
 51
330.005968
  0
LINE
  5
2C2
100
AcDbEntity
  8
基本作図レイヤ
  6
CONTINUOUS
 62
     2
100
AcDbLine
 10
104.760646
 20
121.263283
 30
0.0
 11
105.337355
 21
122.262414
 31
0.0
  0
ARC
  5
2C3
100
AcDbEntity
  8
基本作図レイヤ
  6
CONTINUOUS
 62
     2
100
AcDbCircle
 10
106.636472
 20
121.512549
 30
0.0
 40
1.5
100
AcDbArc
 50
90.0
 51
150.005968
  0
LINE
  5
2C4
100
AcDbEntity
  8
基本作図レイヤ
  6
CONTINUOUS
 62
     2
100
AcDbLine
 10
96.75
 20
116.162549
 30
0.0
 11
89.575
 21
116.162549
 31
0.0
  0
LINE
  5
2C5
100
AcDbEntity
  8
基本作図レイヤ
  6
CONTINUOUS
 62
     2
100
AcDbLine
 10
96.75
 20
116.012549
 30
0.0
 11
96.75
 21
116.162549
 31
0.0
  0
LINE
  5
2C6
100
AcDbEntity
  8
基本作図レイヤ
  6
CONTINUOUS
 62
     2
100
AcDbLine
 10
138.0
 20
187.012549
 30
0.0
 11
138.0
 21
198.012549
 31
0.0
  0
LINE
  5
2C7
100
AcDbEntity
  8
基本作図レイヤ
  6
CONTINUOUS
 62
     2
100
AcDbLine
 10
131.0
 20
198.012549
 30
0.0
 11
131.0
 21
187.012549
 31
0.0
  0
LINE
  5
2C8
100
AcDbEntity
  8
基本作図レイヤ
  6
CONTINUOUS
 62
     2
100
AcDbLine
 10
162.363528
 20
123.012549
 30
0.0
 11
154.182912
 21
123.012549
 31
0.0
  0
LINE
  5
2C9
100
AcDbEntity
  8
基本作図レイヤ
  6
CONTINUOUS
 62
     2
100
AcDbLine
 10
96.75
 20
116.012549
 30
0.0
 11
100.667385
 21
116.012549
 31
0.0
  0
ARC
  5
2CA
100
AcDbEntity
  8
基本作図レイヤ
  6
CONTINUOUS
 62
     2
100
AcDbCircle
 10
159.527219
 20
129.012549
 30
0.0
 40
4.0
100
AcDbArc
 50
181.643617
 51
214.050283
  0
ARC
  5
2CB
100
AcDbEntity
  8
基本作図レイヤ
  6
CONTINUOUS
 62
     2
100
AcDbCircle
 10
162.363528
 20
121.512549
 30
0.0
 40
3.5
100
AcDbArc
 50
29.994032
 51
81.811386
  0
LINE
  5
2CC
100
AcDbEntity
  8
基本作図レイヤ
  6
CONTINUOUS
 62
     2
100
AcDbLine
 10
170.576807
 20
122.262549
 30
0.0
 11
166.35038
 21
122.262549
 31
0.0
  0
LINE
  5
2CD
100
AcDbEntity
  8
基本作図レイヤ
  6
CONTINUOUS
 62
     2
100
AcDbLine
 10
179.0
 20
122.262549
 30
0.0
 11
177.401236
 21
122.262549
 31
0.0
  0
ARC
  5
2CE
100
AcDbEntity
  8
基本作図レイヤ
  6
CONTINUOUS
 62
     2
100
AcDbCircle
 10
177.401236
 20
122.762549
 30
0.0
 40
0.5
100
AcDbArc
 50
182.0
 51
270.0
  0
LINE
  5
2CF
100
AcDbEntity
  8
基本作図レイヤ
  6
CONTINUOUS
 62
     2
100
AcDbLine
 10
170.576807
 20
122.262549
 30
0.0
 11
166.549248
 21
122.262549
 31
0.0
  0
ARC
  5
2D0
100
AcDbEntity
  8
基本作図レイヤ
  6
CONTINUOUS
 62
     2
100
AcDbCircle
 10
161.503572
 20
125.966291
 30
0.0
 40
0.5
100
AcDbArc
 50
2.0
 51
80.0
  0
ARC
  5
2D1
100
AcDbEntity
  8
基本作図レイヤ
  6
CONTINUOUS
 62
     2
100
AcDbCircle
 10
172.242794
 20
124.072677
 30
0.0
 40
0.5
100
AcDbArc
 50
80.0
 51
170.0
  0
ARC
  5
2D2
100
AcDbEntity
  8
基本作図レイヤ
  6
CONTINUOUS
 62
     2
100
AcDbCircle
 10
170.576807
 20
123.262549
 30
0.0
 40
1.0
100
AcDbArc
 50
270.0
 51
350.0
  0
ARC
  5
2D3
100
AcDbEntity
  8
基本作図レイヤ
  6
CONTINUOUS
 62
     2
100
AcDbCircle
 10
163.004473
 20
125.96667
 30
0.0
 40
1.0
100
AcDbArc
 50
182.0
 51
261.811386
  0
LINE
  5
2D4
100
AcDbEntity
  8
基本作図レイヤ
  6
CONTINUOUS
 62
     2
100
AcDbLine
 10
162.005083
 20
125.93177
 30
0.0
 11
162.003268
 21
125.983741
 31
0.0
  0
LINE
  5
2D5
100
AcDbEntity
  8
基本作図レイヤ
  6
CONTINUOUS
 62
     2
100
AcDbLine
 10
171.750391
 20
124.159501
 30
0.0
 11
171.561615
 21
123.088901
 31
0.0
  0
LINE
  5
2D6
100
AcDbEntity
  8
基本作図レイヤ
  6
CONTINUOUS
 62
     2
100
AcDbLine
 10
158.277671
 20
127.042818
 30
0.0
 11
175.796161
 21
123.953836
 31
0.0
  0
LINE
  5
2D7
100
AcDbEntity
  8
基本作図レイヤ
  6
CONTINUOUS
 62
     2
100
AcDbLine
 10
158.259831
 20
127.553677
 30
0.0
 11
158.277671
 21
127.042818
 31
0.0
  0
LINE
  5
2D8
100
AcDbEntity
  8
基本作図レイヤ
  6
CONTINUOUS
 62
     2
100
AcDbLine
 10
175.722548
 20
123.966816
 30
0.0
 11
175.740169
 21
124.471422
 31
0.0
  0
ARC
  5
2D9
100
AcDbEntity
  8
基本作図レイヤ
  6
CONTINUOUS
 62
     2
100
AcDbCircle
 10
176.362513
 20
123.853973
 30
0.0
 40
0.5
100
AcDbArc
 50
2.0
 51
80.0
  0
ARC
  5
2DA
100
AcDbEntity
  8
基本作図レイヤ
  6
CONTINUOUS
 62
     2
100
AcDbCircle
 10
157.631544
 20
127.156748
 30
0.0
 40
0.5
100
AcDbArc
 50
80.0
 51
178.0
  0
ARC
  5
2DB
100
AcDbEntity
  8
基本作図レイヤ
  6
CONTINUOUS
 62
     2
100
AcDbCircle
 10
156.627306
 20
127.052829
 30
0.0
 40
0.5
100
AcDbArc
 50
214.050283
 51
358.0
  0
LINE
  5
2DC
100
AcDbEntity
  8
基本作図レイヤ
  6
CONTINUOUS
 62
     2
100
AcDbLine
 10
157.131849
 20
127.174197
 30
0.0
 11
157.127001
 21
127.035379
 31
0.0
  0
LINE
  5
2DD
100
AcDbEntity
  8
基本作図レイヤ
  6
CONTINUOUS
 62
     2
100
AcDbLine
 10
176.862208
 20
123.871422
 30
0.0
 11
176.90154
 21
122.7451
 31
0.0
  0
LINE
  5
2DE
100
AcDbEntity
  8
基本作図レイヤ
  6
CONTINUOUS
 62
     2
100
AcDbLine
 10
157.718368
 20
127.649152
 30
0.0
 11
176.449337
 21
124.346376
 31
0.0
  0
ARC
  5
2DF
100
AcDbEntity
  8
基本作図レイヤ
  6
CONTINUOUS
 62
     2
100
AcDbCircle
 10
123.347791
 20
193.671311
 30
0.0
 40
1.0
100
AcDbArc
 50
280.0
 51
358.0
  0
ARC
  5
2E0
100
AcDbEntity
  8
基本作図レイヤ
  6
CONTINUOUS
 62
     2
100
AcDbCircle
 10
124.982844
 20
197.512549
 30
0.0
 40
0.5
100
AcDbArc
 50
90.0
 51
178.0
  0
LINE
  5
2E1
100
AcDbEntity
  8
基本作図レイヤ
  6
CONTINUOUS
 62
     2
100
AcDbLine
 10
123.521439
 20
192.686504
 30
0.0
 11
119.268458
 21
191.936588
 31
0.0
  0
LINE
  5
2E2
100
AcDbEntity
  8
基本作図レイヤ
  6
CONTINUOUS
 62
     2
100
AcDbLine
 10
124.483149
 20
197.529999
 30
0.0
 11
124.347182
 21
193.636412
 31
0.0
  0
ARC
  5
2E3
100
AcDbEntity
  8
基本作図レイヤ
  6
CONTINUOUS
 62
     2
100
AcDbCircle
 10
120.136699
 20
187.012549
 30
0.0
 40
5.0
100
AcDbArc
 50
100.0
 51
178.359915
  0
ARC
  5
2E4
100
AcDbEntity
  8
基本作図レイヤ
  6
CONTINUOUS
 62
     2
100
AcDbCircle
 10
102.450752
 20
123.262549
 30
0.0
 40
1.0
100
AcDbArc
 50
270.0
 51
330.005968
  0
LINE
  5
2E5
100
AcDbEntity
  8
基本作図レイヤ
  6
CONTINUOUS
 62
     2
100
AcDbLine
 10
103.605201
 20
123.262234
 30
0.0
 11
103.316829
 21
122.76264
 31
0.0
  0
ARC
  5
2E6
100
AcDbEntity
  8
基本作図レイヤ
  6
CONTINUOUS
 62
     2
100
AcDbCircle
 10
106.636472
 20
121.512549
 30
0.0
 40
3.5
100
AcDbArc
 50
90.0
 51
150.005968
  0
ARC
  5
2E7
100
AcDbEntity
  8
基本作図レイヤ
  6
CONTINUOUS
 62
     2
100
AcDbCircle
 10
100.6609
 20
117.012549
 30
0.0
 40
1.0
100
AcDbArc
 50
270.0
 51
350.0
  0
ARC
  5
2E8
100
AcDbEntity
  8
基本作図レイヤ
  6
CONTINUOUS
 62
     2
100
AcDbCircle
 10
114.817088
 20
123.512549
 30
0.0
 40
0.5
100
AcDbArc
 50
270.0
 51
358.359915
  0
ARC
  5
2E9
100
AcDbEntity
  8
基本作図レイヤ
  6
CONTINUOUS
 62
     2
100
AcDbCircle
 10
109.472781
 20
129.012549
 30
0.0
 40
6.0
100
AcDbArc
 50
270.0
 51
358.356383
  0
ARC
  5
2EA
100
AcDbEntity
  8
基本作図レイヤ
  6
CONTINUOUS
 62
     2
100
AcDbCircle
 10
109.472781
 20
129.012549
 30
0.0
 40
4.0
100
AcDbArc
 50
270.0
 51
358.356383
  0
LINE
  5
2EB
100
AcDbEntity
  8
基本作図レイヤ
  6
CONTINUOUS
 62
     2
100
AcDbLine
 10
89.5
 20
116.162549
 30
0.0
 11
89.5
 21
121.762549
 31
0.0
  0
ARC
  5
2EC
100
AcDbEntity
  8
基本作図レイヤ
  6
CONTINUOUS
 62
     2
100
AcDbCircle
 10
105.73803
 20
117.012531
 30
0.0
 40
4.0
100
AcDbArc
 50
112.896866
 51
170.0
  0
LINE
  5
2ED
100
AcDbEntity
  8
基本作図レイヤ
  6
CONTINUOUS
 62
     2
100
AcDbLine
 10
101.798799
 20
117.707124
 30
0.0
 11
101.645708
 21
116.838901
 31
0.0
  0
LINE
  5
2EE
100
AcDbEntity
  8
基本作図レイヤ
  6
CONTINUOUS
 62
     2
100
AcDbLine
 10
104.760646
 20
121.263283
 30
0.0
 11
105.337355
 21
122.262414
 31
0.0
  0
ARC
  5
2EF
100
AcDbEntity
  8
基本作図レイヤ
  6
CONTINUOUS
 62
     2
100
AcDbCircle
 10
106.636472
 20
121.512549
 30
0.0
 40
1.5
100
AcDbArc
 50
90.0
 51
150.005968
  0
LINE
  5
2F0
100
AcDbEntity
  8
基本作図レイヤ
  6
CONTINUOUS
 62
     2
100
AcDbLine
 10
129.0
 20
198.012549
 30
0.0
 11
129.0
 21
194.762549
 31
0.0
  0
LINE
  5
2F1
100
AcDbEntity
  8
基本作図レイヤ
  6
CONTINUOUS
 62
     2
100
AcDbLine
 10
96.75
 20
116.012549
 30
0.0
 11
96.75
 21
116.162549
 31
0.0
  0
LINE
  5
2F2
100
AcDbEntity
  8
基本作図レイヤ
  6
CONTINUOUS
 62
     2
100
AcDbLine
 10
96.75
 20
116.162549
 30
0.0
 11
89.5
 21
116.162549
 31
0.0
  0
LINE
  5
2F3
100
AcDbEntity
  8
基本作図レイヤ
  6
CONTINUOUS
 62
     2
100
AcDbLine
 10
90.0
 20
122.262549
 30
0.0
 11
102.64962
 21
122.262549
 31
0.0
  0
LINE
  5
2F4
100
AcDbEntity
  8
基本作図レイヤ
  6
CONTINUOUS
 62
     2
100
AcDbLine
 10
96.75
 20
116.012549
 30
0.0
 11
100.6609
 21
116.012549
 31
0.0
  0
LINE
  5
2F5
100
AcDbEntity
  8
基本作図レイヤ
  6
CONTINUOUS
 62
     2
100
AcDbLine
 10
134.5
 20
198.012549
 30
0.0
 11
124.982842
 21
198.012549
 31
0.0
  0
ARC
  5
2F6
100
AcDbEntity
  8
基本作図レイヤ
  6
CONTINUOUS
 62
     2
100
AcDbCircle
 10
120.136699
 20
187.012549
 30
0.0
 40
3.0
100
AcDbArc
 50
90.0
 51
178.359915
  0
ARC
  5
2F7
100
AcDbEntity
  8
基本作図レイヤ
  6
CONTINUOUS
 62
     2
100
AcDbCircle
 10
127.5
 20
188.012549
 30
0.0
 40
1.0
100
AcDbArc
 50
180.0
 51
270.0
  0
ARC
  5
2F8
100
AcDbEntity
  8
基本作図レイヤ
  6
CONTINUOUS
 62
     2
100
AcDbCircle
 10
103.461529
 20
122.013148
 30
0.0
 40
1.5
100
AcDbArc
 50
294.605014
 51
330.005968
  0
LINE
  5
2F9
100
AcDbEntity
  8
基本作図レイヤ
  6
CONTINUOUS
 62
     2
100
AcDbLine
 10
129.0
 20
190.262549
 30
0.0
 11
129.0
 21
187.012549
 31
0.0
  0
LINE
  5
2FA
100
AcDbEntity
  8
基本作図レイヤ
  6
CONTINUOUS
 62
     2
100
AcDbLine
 10
127.75
 20
190.984237
 30
0.0
 11
129.0
 21
190.262549
 31
0.0
  0
LINE
  5
2FB
100
AcDbEntity
  8
基本作図レイヤ
  6
CONTINUOUS
 62
     2
100
AcDbLine
 10
127.75
 20
194.040862
 30
0.0
 11
127.75
 21
190.984237
 31
0.0
  0
LINE
  5
2FC
100
AcDbEntity
  8
基本作図レイヤ
  6
CONTINUOUS
 62
     2
100
AcDbLine
 10
129.0
 20
194.762549
 30
0.0
 11
127.75
 21
194.040862
 31
0.0
  0
LINE
  5
2FD
100
AcDbEntity
  8
基本作図レイヤ
  6
CONTINUOUS
 62
     2
100
AcDbLine
 10
117.137928
 20
187.098412
 30
0.0
 11
115.316883
 21
123.498239
 31
0.0
  0
ARC
  5
2FE
100
AcDbEntity
  8
基本作図レイヤ
  6
CONTINUOUS
 62
     2
100
AcDbCircle
 10
125.0
 20
188.512549
 30
0.0
 40
1.5
100
AcDbArc
 50
0.0
 51
90.0
  0
LINE
  5
2FF
100
AcDbEntity
  8
基本作図レイヤ
  6
CONTINUOUS
 62
     2
100
AcDbLine
 10
131.5
 20
197.512549
 30
0.0
 11
134.5
 21
197.512549
 31
0.0
  0
LINE
  5
300
100
AcDbEntity
  8
基本作図レイヤ
  6
CONTINUOUS
 62
     2
100
AcDbLine
 10
131.5
 20
197.512549
 30
0.0
 11
131.5
 21
187.012549
 31
0.0
  0
LINE
  5
301
100
AcDbEntity
  8
基本作図レイヤ
  6
CONTINUOUS
 62
     2
100
AcDbLine
 10
131.0
 20
198.012549
 30
0.0
 11
131.5
 21
197.512549
 31
0.0
  0
LINE
  5
302
100
AcDbEntity
  8
基本作図レイヤ
  6
CONTINUOUS
 62
     2
100
AcDbLine
 10
127.5
 20
187.012549
 30
0.0
 11
131.5
 21
187.012549
 31
0.0
  0
LINE
  5
303
100
AcDbEntity
  8
基本作図レイヤ
  6
CONTINUOUS
 62
     2
100
AcDbLine
 10
126.5
 20
188.512549
 30
0.0
 11
126.5
 21
188.012549
 31
0.0
  0
LINE
  5
304
100
AcDbEntity
  8
基本作図レイヤ
  6
CONTINUOUS
 62
     2
100
AcDbLine
 10
120.136699
 20
190.012549
 30
0.0
 11
125.0
 21
190.012549
 31
0.0
  0
LINE
  5
305
100
AcDbEntity
  8
基本作図レイヤ
  6
CONTINUOUS
 62
     2
100
AcDbLine
 10
115.17379
 20
188.235331
 30
0.0
 11
113.471136
 21
128.897819
 31
0.0
  0
ARC
  5
306
100
AcDbEntity
  8
基本作図レイヤ
  6
CONTINUOUS
 62
     2
100
AcDbCircle
 10
145.652209
 20
193.671311
 30
0.0
 40
1.0
100
AcDbArc
 50
182.0
 51
260.0
  0
ARC
  5
307
100
AcDbEntity
  8
基本作図レイヤ
  6
CONTINUOUS
 62
     2
100
AcDbCircle
 10
144.017156
 20
197.512549
 30
0.0
 40
0.5
100
AcDbArc
 50
2.0
 51
90.0
  0
LINE
  5
308
100
AcDbEntity
  8
基本作図レイヤ
  6
CONTINUOUS
 62
     2
100
AcDbLine
 10
145.478561
 20
192.686504
 30
0.0
 11
149.731542
 21
191.936588
 31
0.0
  0
LINE
  5
309
100
AcDbEntity
  8
基本作図レイヤ
  6
CONTINUOUS
 62
     2
100
AcDbLine
 10
144.516851
 20
197.529999
 30
0.0
 11
144.652818
 21
193.636412
 31
0.0
  0
ARC
  5
30A
100
AcDbEntity
  8
基本作図レイヤ
  6
CONTINUOUS
 62
     2
100
AcDbCircle
 10
148.863301
 20
187.012549
 30
0.0
 40
5.0
100
AcDbArc
 50
1.640085
 51
80.0
  0
ARC
  5
30B
100
AcDbEntity
  8
基本作図レイヤ
  6
CONTINUOUS
 62
     2
100
AcDbCircle
 10
166.549248
 20
123.262549
 30
0.0
 40
1.0
100
AcDbArc
 50
209.994032
 51
270.0
  0
LINE
  5
30C
100
AcDbEntity
  8
基本作図レイヤ
  6
CONTINUOUS
 62
     2
100
AcDbLine
 10
165.394799
 20
123.262234
 30
0.0
 11
165.683171
 21
122.76264
 31
0.0
  0
ARC
  5
30D
100
AcDbEntity
  8
基本作図レイヤ
  6
CONTINUOUS
 62
     2
100
AcDbCircle
 10
168.3391
 20
117.012549
 30
0.0
 40
1.0
100
AcDbArc
 50
190.0
 51
270.0
  0
ARC
  5
30E
100
AcDbEntity
  8
基本作図レイヤ
  6
CONTINUOUS
 62
     2
100
AcDbCircle
 10
154.182912
 20
123.512549
 30
0.0
 40
0.5
100
AcDbArc
 50
181.640085
 51
270.0
  0
ARC
  5
30F
100
AcDbEntity
  8
基本作図レイヤ
  6
CONTINUOUS
 62
     2
100
AcDbCircle
 10
159.527219
 20
129.012549
 30
0.0
 40
6.0
100
AcDbArc
 50
181.643617
 51
270.0
  0
ARC
  5
310
100
AcDbEntity
  8
基本作図レイヤ
  6
CONTINUOUS
 62
     2
100
AcDbCircle
 10
179.0
 20
121.762549
 30
0.0
 40
0.5
100
AcDbArc
 50
0.0
 51
90.0
  0
LINE
  5
311
100
AcDbEntity
  8
基本作図レイヤ
  6
CONTINUOUS
 62
     2
100
AcDbLine
 10
179.5
 20
116.162549
 30
0.0
 11
179.5
 21
121.762549
 31
0.0
  0
ARC
  5
312
100
AcDbEntity
  8
基本作図レイヤ
  6
CONTINUOUS
 62
     2
100
AcDbCircle
 10
163.26197
 20
117.012531
 30
0.0
 40
4.0
100
AcDbArc
 50
10.0
 51
67.103134
  0
LINE
  5
313
100
AcDbEntity
  8
基本作図レイヤ
  6
CONTINUOUS
 62
     2
100
AcDbLine
 10
167.201201
 20
117.707124
 30
0.0
 11
167.354292
 21
116.838901
 31
0.0
  0
LINE
  5
314
100
AcDbEntity
  8
基本作図レイヤ
  6
CONTINUOUS
 62
     2
100
AcDbLine
 10
164.239354
 20
121.263283
 30
0.0
 11
163.662645
 21
122.262414
 31
0.0
  0
ARC
  5
315
100
AcDbEntity
  8
基本作図レイヤ
  6
CONTINUOUS
 62
     2
100
AcDbCircle
 10
162.363528
 20
121.512549
 30
0.0
 40
1.5
100
AcDbArc
 50
29.994032
 51
90.0
  0
LINE
  5
316
100
AcDbEntity
  8
基本作図レイヤ
  6
CONTINUOUS
 62
     2
100
AcDbLine
 10
140.0
 20
198.012549
 30
0.0
 11
140.0
 21
194.762549
 31
0.0
  0
LINE
  5
317
100
AcDbEntity
  8
基本作図レイヤ
  6
CONTINUOUS
 62
     2
100
AcDbLine
 10
172.25
 20
116.012549
 30
0.0
 11
172.25
 21
116.162549
 31
0.0
  0
LINE
  5
318
100
AcDbEntity
  8
基本作図レイヤ
  6
CONTINUOUS
 62
     2
100
AcDbLine
 10
172.25
 20
116.162549
 30
0.0
 11
179.5
 21
116.162549
 31
0.0
  0
LINE
  5
319
100
AcDbEntity
  8
基本作図レイヤ
  6
CONTINUOUS
 62
     2
100
AcDbLine
 10
134.5
 20
198.012549
 30
0.0
 11
144.017158
 21
198.012549
 31
0.0
  0
ARC
  5
31A
100
AcDbEntity
  8
基本作図レイヤ
  6
CONTINUOUS
 62
     2
100
AcDbCircle
 10
148.863301
 20
187.012549
 30
0.0
 40
3.0
100
AcDbArc
 50
1.640085
 51
90.0
  0
ARC
  5
31B
100
AcDbEntity
  8
基本作図レイヤ
  6
CONTINUOUS
 62
     2
100
AcDbCircle
 10
141.5
 20
188.012549
 30
0.0
 40
1.0
100
AcDbArc
 50
270.0
 51
0.0
  0
ARC
  5
31C
100
AcDbEntity
  8
基本作図レイヤ
  6
CONTINUOUS
 62
     2
100
AcDbCircle
 10
165.538471
 20
122.013148
 30
0.0
 40
1.5
100
AcDbArc
 50
209.994032
 51
245.394986
  0
LINE
  5
31D
100
AcDbEntity
  8
基本作図レイヤ
  6
CONTINUOUS
 62
     2
100
AcDbLine
 10
140.0
 20
190.262549
 30
0.0
 11
140.0
 21
187.012549
 31
0.0
  0
LINE
  5
31E
100
AcDbEntity
  8
基本作図レイヤ
  6
CONTINUOUS
 62
     2
100
AcDbLine
 10
141.25
 20
190.984237
 30
0.0
 11
140.0
 21
190.262549
 31
0.0
  0
LINE
  5
31F
100
AcDbEntity
  8
基本作図レイヤ
  6
CONTINUOUS
 62
     2
100
AcDbLine
 10
141.25
 20
194.040862
 30
0.0
 11
141.25
 21
190.984237
 31
0.0
  0
LINE
  5
320
100
AcDbEntity
  8
基本作図レイヤ
  6
CONTINUOUS
 62
     2
100
AcDbLine
 10
140.0
 20
194.762549
 30
0.0
 11
141.25
 21
194.040862
 31
0.0
  0
LINE
  5
321
100
AcDbEntity
  8
基本作図レイヤ
  6
CONTINUOUS
 62
     2
100
AcDbLine
 10
151.862072
 20
187.098412
 30
0.0
 11
153.683117
 21
123.498239
 31
0.0
  0
ARC
  5
322
100
AcDbEntity
  8
基本作図レイヤ
  6
CONTINUOUS
 62
     2
100
AcDbCircle
 10
144.0
 20
188.512549
 30
0.0
 40
1.5
100
AcDbArc
 50
90.0
 51
180.0
  0
LINE
  5
323
100
AcDbEntity
  8
基本作図レイヤ
  6
CONTINUOUS
 62
     2
100
AcDbLine
 10
137.5
 20
197.512549
 30
0.0
 11
134.5
 21
197.512549
 31
0.0
  0
LINE
  5
324
100
AcDbEntity
  8
基本作図レイヤ
  6
CONTINUOUS
 62
     2
100
AcDbLine
 10
137.5
 20
197.512549
 30
0.0
 11
137.5
 21
187.012549
 31
0.0
  0
LINE
  5
325
100
AcDbEntity
  8
基本作図レイヤ
  6
CONTINUOUS
 62
     2
100
AcDbLine
 10
138.0
 20
198.012549
 30
0.0
 11
137.5
 21
197.512549
 31
0.0
  0
LINE
  5
326
100
AcDbEntity
  8
基本作図レイヤ
  6
CONTINUOUS
 62
     2
100
AcDbLine
 10
141.5
 20
187.012549
 30
0.0
 11
137.5
 21
187.012549
 31
0.0
  0
LINE
  5
327
100
AcDbEntity
  8
基本作図レイヤ
  6
CONTINUOUS
 62
     2
100
AcDbLine
 10
142.5
 20
188.512549
 30
0.0
 11
142.5
 21
188.012549
 31
0.0
  0
LINE
  5
328
100
AcDbEntity
  8
基本作図レイヤ
  6
CONTINUOUS
 62
     2
100
AcDbLine
 10
148.863301
 20
190.012549
 30
0.0
 11
144.0
 21
190.012549
 31
0.0
  0
LINE
  5
329
100
AcDbEntity
  8
基本作図レイヤ
  6
CONTINUOUS
 62
     2
100
AcDbLine
 10
153.82621
 20
188.235331
 30
0.0
 11
155.528864
 21
128.897819
 31
0.0
  0
ARC
  5
32A
100
AcDbEntity
  8
基本作図レイヤ
  6
CONTINUOUS
 62
     2
100
AcDbCircle
 10
168.332615
 20
117.012549
 30
0.0
 40
1.0
100
AcDbArc
 50
190.437475
 51
270.0
  0
LINE
  5
32B
100
AcDbEntity
  8
基本作図レイヤ
  6
CONTINUOUS
 62
     2
100
AcDbLine
 10
134.5
 20
198.012549
 30
0.0
 11
141.25
 21
198.012549
 31
0.0
  0
LINE
  5
32C
100
AcDbEntity
  8
基本作図レイヤ
  6
CONTINUOUS
 62
     2
100
AcDbLine
 10
134.5
 20
198.012549
 30
0.0
 11
127.75
 21
198.012549
 31
0.0
  0
LINE
  5
32D
100
AcDbEntity
  8
基本作図レイヤ
  6
CONTINUOUS
 62
     2
100
AcDbLine
 10
131.0
 20
187.012549
 30
0.0
 11
131.5
 21
187.012549
 31
0.0
  0
LINE
  5
32E
100
AcDbEntity
  8
基本作図レイヤ
  6
CONTINUOUS
 62
     2
100
AcDbLine
 10
131.0
 20
187.012549
 30
0.0
 11
131.0
 21
168.637598
 31
0.0
  0
LINE
  5
32F
100
AcDbEntity
  8
基本作図レイヤ
  6
CONTINUOUS
 62
     2
100
AcDbLine
 10
138.0
 20
168.637598
 30
0.0
 11
138.0
 21
187.012549
 31
0.0
  0
LINE
  5
330
100
AcDbEntity
  8
基本作図レイヤ
  6
CONTINUOUS
 62
     2
100
AcDbLine
 10
138.0
 20
187.012549
 30
0.0
 11
137.5
 21
187.012549
 31
0.0
  0
LINE
  5
331
100
AcDbEntity
  8
基本作図レイヤ
  6
CONTINUOUS
 62
     2
100
AcDbLine
 10
134.491846
 20
198.012549
 30
0.0
 11
140.85
 21
198.012549
 31
0.0
  0
LINE
  5
332
100
AcDbEntity
  8
基本作図レイヤ
  6
CONTINUOUS
 62
     2
100
AcDbLine
 10
134.491846
 20
198.012549
 30
0.0
 11
128.15
 21
198.012549
 31
0.0
  0
LINE
  5
333
100
AcDbEntity
  8
基本作図レイヤ
  6
CONTINUOUS
 62
     2
100
AcDbLine
 10
124.5
 20
119.512549
 30
0.0
 11
130.665064
 21
119.512549
 31
0.0
  0
LINE
  5
334
100
AcDbEntity
  8
基本作図レイヤ
  6
CONTINUOUS
 62
     2
100
AcDbLine
 10
106.991846
 20
119.512549
 30
0.0
 11
120.5
 21
119.512549
 31
0.0
  0
LINE
  5
335
100
AcDbEntity
  8
基本作図レイヤ
  6
CONTINUOUS
 62
     2
100
AcDbLine
 10
106.991846
 20
118.512549
 30
0.0
 11
106.991846
 21
119.512549
 31
0.0
  0
LINE
  5
336
100
AcDbEntity
  8
基本作図レイヤ
  6
CONTINUOUS
 62
     2
100
AcDbLine
 10
108.241846
 20
118.512549
 30
0.0
 11
108.241846
 21
119.512549
 31
0.0
  0
LINE
  5
337
100
AcDbEntity
  8
基本作図レイヤ
  6
CONTINUOUS
 62
     2
100
AcDbLine
 10
138.334936
 20
119.512549
 30
0.0
 11
144.5
 21
119.512549
 31
0.0
  0
LINE
  5
338
100
AcDbEntity
  8
基本作図レイヤ
  6
CONTINUOUS
 62
     2
100
AcDbLine
 10
148.5
 20
119.512549
 30
0.0
 11
161.991846
 21
119.512549
 31
0.0
  0
LINE
  5
339
100
AcDbEntity
  8
基本作図レイヤ
  6
CONTINUOUS
 62
     2
100
AcDbLine
 10
160.741846
 20
118.512549
 30
0.0
 11
160.741846
 21
119.512549
 31
0.0
  0
LINE
  5
33A
100
AcDbEntity
  8
基本作図レイヤ
  6
CONTINUOUS
 62
     2
100
AcDbLine
 10
161.991846
 20
118.512549
 30
0.0
 11
161.991846
 21
119.512549
 31
0.0
  0
LINE
  5
33B
100
AcDbEntity
  8
基本作図レイヤ
  6
CONTINUOUS
 62
     2
100
AcDbLine
 10
140.0
 20
215.966025
 30
0.0
 11
129.0
 21
215.966025
 31
0.0
  0
LINE
  5
33C
100
AcDbEntity
  8
基本作図レイヤ
  6
CONTINUOUS
 62
     2
100
AcDbLine
 10
129.0
 20
220.466025
 30
0.0
 11
140.0
 21
220.466025
 31
0.0
  0
LINE
  5
33D
100
AcDbEntity
  8
基本作図レイヤ
  6
CONTINUOUS
 62
     2
100
AcDbLine
 10
128.15
 20
216.337448
 30
0.0
 11
128.15
 21
220.1065
 31
0.0
  0
LINE
  5
33E
100
AcDbEntity
  8
基本作図レイヤ
  6
CONTINUOUS
 62
     2
100
AcDbLine
 10
131.0
 20
215.966025
 30
0.0
 11
131.0
 21
203.553167
 31
0.0
  0
LINE
  5
33F
100
AcDbEntity
  8
基本作図レイヤ
  6
CONTINUOUS
 62
     2
100
AcDbLine
 10
131.0
 20
168.637598
 30
0.0
 11
133.085786
 21
166.551812
 31
0.0
  0
LINE
  5
340
100
AcDbEntity
  8
基本作図レイヤ
  6
CONTINUOUS
 62
     2
100
AcDbLine
 10
135.914214
 20
166.551812
 30
0.0
 11
138.0
 21
168.637598
 31
0.0
  0
ARC
  5
341
100
AcDbEntity
  8
基本作図レイヤ
  6
CONTINUOUS
 62
     2
100
AcDbCircle
 10
134.5
 20
167.966025
 30
0.0
 40
2.0
100
AcDbArc
 50
225.0
 51
315.0
  0
LINE
  5
342
100
AcDbEntity
  8
基本作図レイヤ
  6
CONTINUOUS
 62
     2
100
AcDbLine
 10
131.0
 20
212.966025
 30
0.0
 11
138.0
 21
212.966025
 31
0.0
  0
ARC
  5
343
100
AcDbEntity
  8
基本作図レイヤ
  6
CONTINUOUS
 62
     2
100
AcDbCircle
 10
134.5
 20
206.466025
 30
0.0
 40
14.0
100
AcDbArc
 50
76.892093
 51
103.107907
  0
LINE
  5
344
100
AcDbEntity
  8
基本作図レイヤ
  6
CONTINUOUS
 62
     2
100
AcDbLine
 10
137.5
 20
212.966025
 30
0.0
 11
138.0
 21
213.832051
 31
0.0
  0
LINE
  5
345
100
AcDbEntity
  8
基本作図レイヤ
  6
CONTINUOUS
 62
     2
100
AcDbLine
 10
131.0
 20
213.832051
 30
0.0
 11
131.5
 21
212.966025
 31
0.0
  0
LINE
  5
346
100
AcDbEntity
  8
基本作図レイヤ
  6
CONTINUOUS
 62
     2
100
AcDbLine
 10
129.0
 20
220.466025
 30
0.0
 11
128.137591
 21
220.101251
 31
0.0
  0
ARC
  5
347
100
AcDbEntity
  8
基本作図レイヤ
  6
CONTINUOUS
 62
     2
100
AcDbCircle
 10
141.991846
 20
119.262549
 30
0.0
 40
2.0
100
AcDbArc
 50
270.0
 51
0.0
  0
LINE
  5
348
100
AcDbEntity
  8
基本作図レイヤ
  6
CONTINUOUS
 62
     2
100
AcDbLine
 10
131.5
 20
117.762549
 30
0.0
 11
126.991846
 21
117.762549
 31
0.0
  0
LINE
  5
349
100
AcDbEntity
  8
基本作図レイヤ
  6
CONTINUOUS
 62
     2
100
AcDbLine
 10
143.991846
 20
119.262549
 30
0.0
 11
143.491846
 21
119.262549
 31
0.0
  0
ARC
  5
34A
100
AcDbEntity
  8
基本作図レイヤ
  6
CONTINUOUS
 62
     2
100
AcDbCircle
 10
126.991846
 20
119.262549
 30
0.0
 40
2.0
100
AcDbArc
 50
180.0
 51
270.0
  0
LINE
  5
34B
100
AcDbEntity
  8
基本作図レイヤ
  6
CONTINUOUS
 62
     2
100
AcDbLine
 10
141.991846
 20
117.762549
 30
0.0
 11
137.5
 21
117.762549
 31
0.0
  0
ARC
  5
34C
100
AcDbEntity
  8
基本作図レイヤ
  6
CONTINUOUS
 62
     2
100
AcDbCircle
 10
141.991846
 20
119.262549
 30
0.0
 40
1.5
100
AcDbArc
 50
270.0
 51
0.0
  0
LINE
  5
34D
100
AcDbEntity
  8
基本作図レイヤ
  6
CONTINUOUS
 62
     2
100
AcDbLine
 10
125.491846
 20
119.262549
 30
0.0
 11
124.991846
 21
119.262549
 31
0.0
  0
LINE
  5
34E
100
AcDbEntity
  8
基本作図レイヤ
  6
CONTINUOUS
 62
     2
100
AcDbLine
 10
138.767949
 20
119.262549
 30
0.0
 11
143.491846
 21
119.262549
 31
0.0
  0
ARC
  5
34F
100
AcDbEntity
  8
基本作図レイヤ
  6
CONTINUOUS
 62
     2
100
AcDbCircle
 10
109.491846
 20
118.512549
 30
0.0
 40
2.5
100
AcDbArc
 50
180.0
 51
270.0
  0
LINE
  5
350
100
AcDbEntity
  8
基本作図レイヤ
  6
CONTINUOUS
 62
     2
100
AcDbLine
 10
137.5
 20
117.262549
 30
0.0
 11
159.491846
 21
117.262549
 31
0.0
  0
ARC
  5
351
100
AcDbEntity
  8
基本作図レイヤ
  6
CONTINUOUS
 62
     2
100
AcDbCircle
 10
126.991846
 20
119.262549
 30
0.0
 40
1.5
100
AcDbArc
 50
180.0
 51
270.0
  0
LINE
  5
352
100
AcDbEntity
  8
基本作図レイヤ
  6
CONTINUOUS
 62
     2
100
AcDbLine
 10
125.491846
 20
119.262549
 30
0.0
 11
130.232051
 21
119.262549
 31
0.0
  0
ARC
  5
353
100
AcDbEntity
  8
基本作図レイヤ
  6
CONTINUOUS
 62
     2
100
AcDbCircle
 10
109.491846
 20
118.512549
 30
0.0
 40
1.25
100
AcDbArc
 50
180.0
 51
270.0
  0
ARC
  5
354
100
AcDbEntity
  8
基本作図レイヤ
  6
CONTINUOUS
 62
     2
100
AcDbCircle
 10
159.491846
 20
118.512549
 30
0.0
 40
2.5
100
AcDbArc
 50
270.0
 51
0.0
  0
ARC
  5
355
100
AcDbEntity
  8
基本作図レイヤ
  6
CONTINUOUS
 62
     2
100
AcDbCircle
 10
159.491846
 20
118.512549
 30
0.0
 40
1.25
100
AcDbArc
 50
270.0
 51
0.0
  0
ARC
  5
356
100
AcDbEntity
  8
基本作図レイヤ
  6
CONTINUOUS
 62
     2
100
AcDbCircle
 10
144.8391
 20
169.966025
 30
0.0
 40
1.0
100
AcDbArc
 50
90.0
 51
170.0
  0
ARC
  5
357
100
AcDbEntity
  8
基本作図レイヤ
  6
CONTINUOUS
 62
     2
100
AcDbCircle
 10
124.1609
 20
169.966025
 30
0.0
 40
1.0
100
AcDbArc
 50
10.0
 51
90.0
  0
LINE
  5
358
100
AcDbEntity
  8
基本作図レイヤ
  6
CONTINUOUS
 62
     2
100
AcDbLine
 10
134.952933
 20
166.025655
 30
0.0
 11
141.320287
 21
167.731782
 31
0.0
  0
ARC
  5
359
100
AcDbEntity
  8
基本作図レイヤ
  6
CONTINUOUS
 62
     2
100
AcDbCircle
 10
127.938532
 20
168.697708
 30
0.0
 40
2.5
100
AcDbArc
 50
190.0
 51
255.0
  0
ARC
  5
35A
100
AcDbEntity
  8
基本作図レイヤ
  6
CONTINUOUS
 62
     2
100
AcDbCircle
 10
134.5
 20
167.716025
 30
0.0
 40
1.75
100
AcDbArc
 50
255.0
 51
285.0
  0
LINE
  5
35B
100
AcDbEntity
  8
基本作図レイヤ
  6
CONTINUOUS
 62
     2
100
AcDbLine
 10
148.0
 20
172.466025
 30
0.0
 11
148.0
 21
170.966025
 31
0.0
  0
LINE
  5
35C
100
AcDbEntity
  8
基本作図レイヤ
  6
CONTINUOUS
 62
     2
100
AcDbLine
 10
121.0
 20
172.466025
 30
0.0
 11
131.0
 21
172.466025
 31
0.0
  0
LINE
  5
35D
100
AcDbEntity
  8
基本作図レイヤ
  6
CONTINUOUS
 62
     2
100
AcDbLine
 10
121.0
 20
170.966025
 30
0.0
 11
121.0
 21
172.466025
 31
0.0
  0
LINE
  5
35E
100
AcDbEntity
  8
基本作図レイヤ
  6
CONTINUOUS
 62
     2
100
AcDbLine
 10
131.0
 20
168.637598
 30
0.0
 11
138.0
 21
168.637598
 31
0.0
  0
ARC
  5
35F
100
AcDbEntity
  8
基本作図レイヤ
  6
CONTINUOUS
 62
     2
100
AcDbCircle
 10
141.061468
 20
168.697708
 30
0.0
 40
1.0
100
AcDbArc
 50
285.0
 51
350.0
  0
LINE
  5
360
100
AcDbEntity
  8
基本作図レイヤ
  6
CONTINUOUS
 62
     2
100
AcDbLine
 10
138.0
 20
172.466025
 30
0.0
 11
148.0
 21
172.466025
 31
0.0
  0
LINE
  5
361
100
AcDbEntity
  8
基本作図レイヤ
  6
CONTINUOUS
 62
     2
100
AcDbLine
 10
130.0
 20
124.612549
 30
0.0
 11
139.0
 21
124.612549
 31
0.0
  0
LINE
  5
362
100
AcDbEntity
  8
基本作図レイヤ
  6
CONTINUOUS
 62
     2
100
AcDbLine
 10
139.975
 20
124.049633
 30
0.0
 11
139.975
 21
119.612549
 31
0.0
  0
LINE
  5
363
100
AcDbEntity
  8
基本作図レイヤ
  6
CONTINUOUS
 62
     2
100
AcDbLine
 10
135.75
 20
110.062549
 30
0.0
 11
135.75
 21
111.886845
 31
0.0
  0
ARC
  5
364
100
AcDbEntity
  8
基本作図レイヤ
  6
CONTINUOUS
 62
     2
100
AcDbCircle
 10
134.5
 20
119.407649
 30
0.0
 40
7.5
100
AcDbArc
 50
280.544931
 51
286.45925
  0
LINE
  5
365
100
AcDbEntity
  8
基本作図レイヤ
  6
CONTINUOUS
 62
     2
100
AcDbLine
 10
136.625
 20
112.214988
 30
0.0
 11
136.625
 21
113.205211
 31
0.0
  0
ARC
  5
366
100
AcDbEntity
  8
基本作図レイヤ
  6
CONTINUOUS
 62
     2
100
AcDbCircle
 10
134.5
 20
106.012549
 30
0.0
 40
7.5
100
AcDbArc
 50
73.54075
 51
106.45925
  0
LINE
  5
367
100
AcDbEntity
  8
基本作図レイヤ
  6
CONTINUOUS
 62
     2
100
AcDbLine
 10
132.375
 20
113.205211
 30
0.0
 11
132.375
 21
112.214988
 31
0.0
  0
ARC
  5
368
100
AcDbEntity
  8
基本作図レイヤ
  6
CONTINUOUS
 62
     2
100
AcDbCircle
 10
134.5
 20
119.407649
 30
0.0
 40
7.5
100
AcDbArc
 50
253.54075
 51
259.455069
  0
ARC
  5
369
100
AcDbEntity
  8
基本作図レイヤ
  6
CONTINUOUS
 62
     2
100
AcDbCircle
 10
129.7375
 20
216.829235
 30
0.0
 40
3.63679
100
AcDbArc
 50
64.118503
 51
116.120405
  0
LINE
  5
36A
100
AcDbEntity
  8
基本作図レイヤ
  6
CONTINUOUS
 62
     2
100
AcDbLine
 10
133.25
 20
111.886845
 30
0.0
 11
133.25
 21
110.062549
 31
0.0
  0
ARC
  5
36B
100
AcDbEntity
  8
基本作図レイヤ
  6
CONTINUOUS
 62
     2
100
AcDbCircle
 10
133.1
 20
110.062549
 30
0.0
 40
0.15
100
AcDbArc
 50
270.0
 51
0.0
  0
ARC
  5
36C
100
AcDbEntity
  8
基本作図レイヤ
  6
CONTINUOUS
 62
     2
100
AcDbCircle
 10
135.9
 20
110.062549
 30
0.0
 40
0.15
100
AcDbArc
 50
180.0
 51
270.0
  0
ARC
  5
36D
100
AcDbEntity
  8
基本作図レイヤ
  6
CONTINUOUS
 62
     2
100
AcDbCircle
 10
133.1
 20
111.886845
 30
0.0
 40
0.15
100
AcDbArc
 50
0.0
 51
79.455069
  0
ARC
  5
36E
100
AcDbEntity
  8
基本作図レイヤ
  6
CONTINUOUS
 62
     2
100
AcDbCircle
 10
135.9
 20
111.886845
 30
0.0
 40
0.15
100
AcDbArc
 50
100.544931
 51
180.0
  0
LINE
  5
36F
100
AcDbEntity
  8
基本作図レイヤ
  6
CONTINUOUS
 62
     2
100
AcDbLine
 10
109.491846
 20
117.262549
 30
0.0
 11
131.5
 21
117.262549
 31
0.0
  0
LINE
  5
370
100
AcDbEntity
  8
基本作図レイヤ
  6
CONTINUOUS
 62
     2
100
AcDbLine
 10
137.675
 20
220.101251
 30
0.0
 11
137.675
 21
216.3308
 31
0.0
  0
LINE
  5
371
100
AcDbEntity
  8
基本作図レイヤ
  6
CONTINUOUS
 62
     2
100
AcDbLine
 10
131.325
 20
220.101251
 30
0.0
 11
131.325
 21
216.3308
 31
0.0
  0
LINE
  5
372
100
AcDbEntity
  8
基本作図レイヤ
  6
CONTINUOUS
 62
     2
100
AcDbLine
 10
129.0
 20
215.966025
 30
0.0
 11
140.0
 21
215.966025
 31
0.0
  0
ARC
  5
373
100
AcDbEntity
  8
基本作図レイヤ
  6
CONTINUOUS
 62
     2
100
AcDbCircle
 10
134.5
 20
229.966025
 30
0.0
 40
14.0
100
AcDbArc
 50
256.892093
 51
283.107907
  0
LINE
  5
374
100
AcDbEntity
  8
基本作図レイヤ
  6
CONTINUOUS
 62
     2
100
AcDbLine
 10
127.291484
 20
166.282894
 30
0.0
 11
133.658838
 21
164.576766
 31
0.0
  0
LINE
  5
375
100
AcDbEntity
  8
基本作図レイヤ
  6
CONTINUOUS
 62
     2
100
AcDbLine
 10
135.341162
 20
164.576766
 30
0.0
 11
141.708516
 21
166.282894
 31
0.0
  0
ARC
  5
376
100
AcDbEntity
  8
基本作図レイヤ
  6
CONTINUOUS
 62
     2
100
AcDbCircle
 10
144.8391
 20
169.966025
 30
0.0
 40
2.5
100
AcDbArc
 50
90.0
 51
170.0
  0
ARC
  5
377
100
AcDbEntity
  8
基本作図レイヤ
  6
CONTINUOUS
 62
     2
100
AcDbCircle
 10
124.1609
 20
169.966025
 30
0.0
 40
2.5
100
AcDbArc
 50
10.0
 51
90.0
  0
LINE
  5
378
100
AcDbEntity
  8
基本作図レイヤ
  6
CONTINUOUS
 62
     2
100
AcDbLine
 10
142.046276
 20
168.52406
 30
0.0
 11
142.37708
 21
170.400146
 31
0.0
  0
ARC
  5
379
100
AcDbEntity
  8
基本作図レイヤ
  6
CONTINUOUS
 62
     2
100
AcDbCircle
 10
141.061468
 20
168.697708
 30
0.0
 40
2.5
100
AcDbArc
 50
285.0
 51
350.0
  0
ARC
  5
37A
100
AcDbEntity
  8
基本作図レイヤ
  6
CONTINUOUS
 62
     2
100
AcDbCircle
 10
127.938532
 20
168.697708
 30
0.0
 40
1.0
100
AcDbArc
 50
190.0
 51
255.0
  0
LINE
  5
37B
100
AcDbEntity
  8
基本作図レイヤ
  6
CONTINUOUS
 62
     2
100
AcDbLine
 10
126.62292
 20
170.400146
 30
0.0
 11
126.953724
 21
168.52406
 31
0.0
  0
LINE
  5
37C
100
AcDbEntity
  8
基本作図レイヤ
  6
CONTINUOUS
 62
     2
100
AcDbLine
 10
124.1609
 20
170.966025
 30
0.0
 11
121.0
 21
170.966025
 31
0.0
  0
LINE
  5
37D
100
AcDbEntity
  8
基本作図レイヤ
  6
CONTINUOUS
 62
     2
100
AcDbLine
 10
125.476513
 20
168.263588
 30
0.0
 11
125.145708
 21
170.139674
 31
0.0
  0
LINE
  5
37E
100
AcDbEntity
  8
基本作図レイヤ
  6
CONTINUOUS
 62
     2
100
AcDbLine
 10
127.679713
 20
167.731782
 30
0.0
 11
134.047067
 21
166.025655
 31
0.0
  0
ARC
  5
37F
100
AcDbEntity
  8
基本作図レイヤ
  6
CONTINUOUS
 62
     2
100
AcDbCircle
 10
134.5
 20
167.716025
 30
0.0
 40
3.25
100
AcDbArc
 50
255.0
 51
286.325543
  0
LINE
  5
380
100
AcDbEntity
  8
基本作図レイヤ
  6
CONTINUOUS
 62
     2
100
AcDbLine
 10
143.854292
 20
170.139674
 30
0.0
 11
143.523487
 21
168.263588
 31
0.0
  0
LINE
  5
381
100
AcDbEntity
  8
基本作図レイヤ
  6
CONTINUOUS
 62
     2
100
AcDbLine
 10
148.0
 20
170.966025
 30
0.0
 11
144.8391
 21
170.966025
 31
0.0
  0
LINE
  5
382
100
AcDbEntity
  8
基本作図レイヤ
  6
CONTINUOUS
 62
     2
100
AcDbLine
 10
137.242414
 20
119.612549
 30
0.0
 11
137.242414
 21
124.049633
 31
0.0
  0
LINE
  5
383
100
AcDbEntity
  8
基本作図レイヤ
  6
CONTINUOUS
 62
     2
100
AcDbLine
 10
131.5
 20
117.762549
 30
0.0
 11
137.5
 21
117.762549
 31
0.0
  0
LINE
  5
384
100
AcDbEntity
  8
基本作図レイヤ
  6
CONTINUOUS
 62
     2
100
AcDbLine
 10
128.5
 20
118.262549
 30
0.0
 11
130.838269
 21
119.612549
 31
0.0
  0
LINE
  5
385
100
AcDbEntity
  8
基本作図レイヤ
  6
CONTINUOUS
 62
     2
100
AcDbLine
 10
129.025
 20
119.612549
 30
0.0
 11
139.975
 21
119.612549
 31
0.0
  0
LINE
  5
386
100
AcDbEntity
  8
基本作図レイヤ
  6
CONTINUOUS
 62
     2
100
AcDbLine
 10
138.161731
 20
119.612549
 30
0.0
 11
140.5
 21
118.262549
 31
0.0
  0
LINE
  5
387
100
AcDbEntity
  8
基本作図レイヤ
  6
CONTINUOUS
 62
     2
100
AcDbLine
 10
140.5
 20
118.262549
 30
0.0
 11
140.5
 21
117.762549
 31
0.0
  0
LINE
  5
388
100
AcDbEntity
  8
基本作図レイヤ
  6
CONTINUOUS
 62
     2
100
AcDbLine
 10
128.15
 20
198.012549
 30
0.0
 11
128.15
 21
202.877464
 31
0.0
  0
LINE
  5
389
100
AcDbEntity
  8
基本作図レイヤ
  6
CONTINUOUS
 62
     2
100
AcDbLine
 10
129.25
 20
203.512549
 30
0.0
 11
139.75
 21
203.512549
 31
0.0
  0
LINE
  5
38A
100
AcDbEntity
  8
基本作図レイヤ
  6
CONTINUOUS
 62
     2
100
AcDbLine
 10
140.85
 20
202.877464
 30
0.0
 11
140.85
 21
198.012549
 31
0.0
  0
LINE
  5
38B
100
AcDbEntity
  8
基本作図レイヤ
  6
CONTINUOUS
 62
     2
100
AcDbLine
 10
138.0
 20
203.523682
 30
0.0
 11
138.0
 21
215.966025
 31
0.0
  0
LINE
  5
38C
100
AcDbEntity
  8
基本作図レイヤ
  6
CONTINUOUS
 62
     2
100
AcDbLine
 10
129.025
 20
119.612549
 30
0.0
 11
129.025
 21
124.049633
 31
0.0
  0
LINE
  5
38D
100
AcDbEntity
  8
基本作図レイヤ
  6
CONTINUOUS
 62
     2
100
AcDbLine
 10
128.5
 20
117.762549
 30
0.0
 11
128.5
 21
118.262549
 31
0.0
  0
ARC
  5
38E
100
AcDbEntity
  8
基本作図レイヤ
  6
CONTINUOUS
 62
     2
100
AcDbCircle
 10
139.0
 20
121.587248
 30
0.0
 40
3.025301
100
AcDbArc
 50
90.0
 51
125.518257
  0
LINE
  5
38F
100
AcDbEntity
  8
基本作図レイヤ
  6
CONTINUOUS
 62
     2
100
AcDbLine
 10
131.324574
 20
202.877464
 30
0.0
 11
131.324574
 21
198.012549
 31
0.0
  0
ARC
  5
390
100
AcDbEntity
  8
基本作図レイヤ
  6
CONTINUOUS
 62
     2
100
AcDbCircle
 10
134.5
 20
195.256441
 30
0.0
 40
8.256109
100
AcDbArc
 50
67.380135
 51
112.619865
  0
LINE
  5
391
100
AcDbEntity
  8
基本作図レイヤ
  6
CONTINUOUS
 62
     2
100
AcDbLine
 10
139.75
 20
203.512549
 30
0.0
 11
140.85
 21
202.877464
 31
0.0
  0
LINE
  5
392
100
AcDbEntity
  8
基本作図レイヤ
  6
CONTINUOUS
 62
     2
100
AcDbLine
 10
137.675426
 20
202.877464
 30
0.0
 11
137.675426
 21
198.012549
 31
0.0
  0
LINE
  5
393
100
AcDbEntity
  8
基本作図レイヤ
  6
CONTINUOUS
 62
     2
100
AcDbLine
 10
129.25
 20
203.512549
 30
0.0
 11
128.15
 21
202.877464
 31
0.0
  0
ARC
  5
394
100
AcDbEntity
  8
基本作図レイヤ
  6
CONTINUOUS
 62
     2
100
AcDbCircle
 10
129.25
 20
199.802195
 30
0.0
 40
3.709601
100
AcDbArc
 50
55.996439
 51
90.0
  0
ARC
  5
395
100
AcDbEntity
  8
基本作図レイヤ
  6
CONTINUOUS
 62
     2
100
AcDbCircle
 10
139.75
 20
199.802195
 30
0.0
 40
3.709601
100
AcDbArc
 50
90.0
 51
124.003561
  0
LINE
  5
396
100
AcDbEntity
  8
基本作図レイヤ
  6
CONTINUOUS
 62
     2
100
AcDbLine
 10
128.5
 20
118.262549
 30
0.0
 11
140.5
 21
118.262549
 31
0.0
  0
ARC
  5
397
100
AcDbEntity
  8
基本作図レイヤ
  6
CONTINUOUS
 62
     2
100
AcDbCircle
 10
134.5
 20
117.650852
 30
0.0
 40
6.961697
100
AcDbArc
 50
66.80081
 51
113.19919
  0
LINE
  5
398
100
AcDbEntity
  8
基本作図レイヤ
  6
CONTINUOUS
 62
     2
100
AcDbLine
 10
131.757586
 20
124.049633
 30
0.0
 11
131.757586
 21
119.612549
 31
0.0
  0
ARC
  5
399
100
AcDbEntity
  8
基本作図レイヤ
  6
CONTINUOUS
 62
     2
100
AcDbCircle
 10
130.0
 20
121.587248
 30
0.0
 40
3.025301
100
AcDbArc
 50
54.481743
 51
90.0
  0
LINE
  5
39A
100
AcDbEntity
  8
基本作図レイヤ
  6
CONTINUOUS
 62
     2
100
AcDbLine
 10
130.0
 20
124.612549
 30
0.0
 11
129.025
 21
124.049633
 31
0.0
  0
LINE
  5
39B
100
AcDbEntity
  8
基本作図レイヤ
  6
CONTINUOUS
 62
     2
100
AcDbLine
 10
139.0
 20
124.612549
 30
0.0
 11
139.975
 21
124.049633
 31
0.0
  0
LINE
  5
39C
100
AcDbEntity
  8
基本作図レイヤ
  6
CONTINUOUS
 62
     2
100
AcDbLine
 10
136.0
 20
78.366025
 30
0.0
 11
133.0
 21
78.366025
 31
0.0
  0
LINE
  5
39D
100
AcDbEntity
  8
基本作図レイヤ
  6
CONTINUOUS
 62
     2
100
AcDbLine
 10
140.75
 20
70.966025
 30
0.0
 11
142.66748
 21
70.966025
 31
0.0
  0
ARC
  5
39E
100
AcDbEntity
  8
基本作図レイヤ
  6
CONTINUOUS
 62
     2
100
AcDbCircle
 10
142.66748
 20
69.466025
 30
0.0
 40
1.5
100
AcDbArc
 50
35.0
 51
90.0
  0
ARC
  5
39F
100
AcDbEntity
  8
基本作図レイヤ
  6
CONTINUOUS
 62
     2
100
AcDbCircle
 10
134.5
 20
120.966025
 30
0.0
 40
60.0
100
AcDbArc
 50
279.109134
 51
282.009567
  0
LINE
  5
3A0
100
AcDbEntity
  8
基本作図レイヤ
  6
CONTINUOUS
 62
     2
100
AcDbLine
 10
143.896208
 20
70.32639
 30
0.0
 11
147.901117
 21
64.606787
 31
0.0
  0
ARC
  5
3A1
100
AcDbEntity
  8
基本作図レイヤ
  6
CONTINUOUS
 62
     2
100
AcDbCircle
 10
146.672389
 20
63.746423
 30
0.0
 40
1.5
100
AcDbArc
 50
282.009567
 51
35.0
  0
LINE
  5
3A2
100
AcDbEntity
  8
基本作図レイヤ
  6
CONTINUOUS
 62
     2
100
AcDbLine
 10
125.082268
 20
70.966025
 30
0.0
 11
128.25
 21
70.966025
 31
0.0
  0
ARC
  5
3A3
100
AcDbEntity
  8
基本作図レイヤ
  6
CONTINUOUS
 62
     2
100
AcDbCircle
 10
125.082268
 20
74.966025
 30
0.0
 40
4.0
100
AcDbArc
 50
215.0
 51
270.0
  0
ARC
  5
3A4
100
AcDbEntity
  8
基本作図レイヤ
  6
CONTINUOUS
 62
     2
100
AcDbCircle
 10
134.5
 20
24.966025
 30
0.0
 40
60.0
100
AcDbArc
 50
109.671877
 51
117.43924
  0
LINE
  5
3A5
100
AcDbEntity
  8
基本作図レイヤ
  6
CONTINUOUS
 62
     2
100
AcDbLine
 10
116.035691
 20
80.91209
 30
0.0
 11
121.80566
 21
72.67172
 31
0.0
  0
ARC
  5
3A6
100
AcDbEntity
  8
基本作図レイヤ
  6
CONTINUOUS
 62
     2
100
AcDbCircle
 10
114.806963
 20
80.051725
 30
0.0
 40
1.5
100
AcDbArc
 50
35.0
 51
109.671877
  0
ARC
  5
3A7
100
AcDbEntity
  8
基本作図レイヤ
  6
CONTINUOUS
 62
     2
100
AcDbCircle
 10
123.07503
 20
81.319553
 30
0.0
 40
2.5
100
AcDbArc
 50
101.460665
 51
215.0
  0
LINE
  5
3A8
100
AcDbEntity
  8
基本作図レイヤ
  6
CONTINUOUS
 62
     2
100
AcDbLine
 10
129.0
 20
74.466025
 30
0.0
 11
125.602835
 21
74.466025
 31
0.0
  0
LINE
  5
3A9
100
AcDbEntity
  8
基本作図レイヤ
  6
CONTINUOUS
 62
     2
100
AcDbLine
 10
121.027149
 20
79.885612
 30
0.0
 11
124.374107
 21
75.105661
 31
0.0
  0
ARC
  5
3AA
100
AcDbEntity
  8
基本作図レイヤ
  6
CONTINUOUS
 62
     2
100
AcDbCircle
 10
125.602835
 20
75.966025
 30
0.0
 40
1.5
100
AcDbArc
 50
215.0
 51
270.0
  0
LINE
  5
3AB
100
AcDbEntity
  8
基本作図レイヤ
  6
CONTINUOUS
 62
     2
100
AcDbLine
 10
133.5
 20
74.966025
 30
0.0
 11
129.45
 21
74.966025
 31
0.0
  0
LINE
  5
3AC
100
AcDbEntity
  8
基本作図レイヤ
  6
CONTINUOUS
 62
     2
100
AcDbLine
 10
139.55
 20
74.966025
 30
0.0
 11
135.5
 21
74.966025
 31
0.0
  0
ARC
  5
3AD
100
AcDbEntity
  8
基本作図レイヤ
  6
CONTINUOUS
 62
     2
100
AcDbCircle
 10
134.5
 20
120.966025
 30
0.0
 40
60.0
100
AcDbArc
 50
288.771645
 51
294.146848
  0
ARC
  5
3AE
100
AcDbEntity
  8
基本作図レイヤ
  6
CONTINUOUS
 62
     2
100
AcDbCircle
 10
153.325135
 20
65.577721
 30
0.0
 40
1.5
100
AcDbArc
 50
215.0
 51
288.771645
  0
LINE
  5
3AF
100
AcDbEntity
  8
基本作図レイヤ
  6
CONTINUOUS
 62
     2
100
AcDbLine
 10
140.0
 20
74.466025
 30
0.0
 11
143.188047
 21
74.466025
 31
0.0
  0
LINE
  5
3B0
100
AcDbEntity
  8
基本作図レイヤ
  6
CONTINUOUS
 62
     2
100
AcDbLine
 10
146.464655
 20
72.760331
 30
0.0
 11
152.096407
 21
64.717356
 31
0.0
  0
ARC
  5
3B1
100
AcDbEntity
  8
基本作図レイヤ
  6
CONTINUOUS
 62
     2
100
AcDbCircle
 10
143.188047
 20
70.466025
 30
0.0
 40
4.0
100
AcDbArc
 50
35.0
 51
90.0
  0
LINE
  5
3B2
100
AcDbEntity
  8
基本作図レイヤ
  6
CONTINUOUS
 62
     2
100
AcDbLine
 10
135.133975
 20
91.366025
 30
0.0
 11
136.0
 21
90.866025
 31
0.0
  0
LINE
  5
3B3
100
AcDbEntity
  8
基本作図レイヤ
  6
CONTINUOUS
 62
     2
100
AcDbLine
 10
133.866025
 20
91.366025
 30
0.0
 11
135.133975
 21
91.366025
 31
0.0
  0
LINE
  5
3B4
100
AcDbEntity
  8
基本作図レイヤ
  6
CONTINUOUS
 62
     2
100
AcDbLine
 10
133.0
 20
90.866025
 30
0.0
 11
134.5
 21
91.732051
 31
0.0
  0
LINE
  5
3B5
100
AcDbEntity
  8
基本作図レイヤ
  6
CONTINUOUS
 62
     2
100
AcDbLine
 10
134.5
 20
91.732051
 30
0.0
 11
136.0
 21
90.866025
 31
0.0
  0
LINE
  5
3B6
100
AcDbEntity
  8
基本作図レイヤ
  6
CONTINUOUS
 62
     2
100
AcDbLine
 10
133.0
 20
90.866025
 30
0.0
 11
136.0
 21
90.866025
 31
0.0
  0
LINE
  5
3B7
100
AcDbEntity
  8
基本作図レイヤ
  6
CONTINUOUS
 62
     2
100
AcDbLine
 10
133.0
 20
90.866025
 30
0.0
 11
133.866025
 21
91.366025
 31
0.0
  0
LINE
  5
3B8
100
AcDbEntity
  8
基本作図レイヤ
  6
CONTINUOUS
 62
     2
100
AcDbLine
 10
136.0
 20
90.866025
 30
0.0
 11
136.0
 21
88.912549
 31
0.0
  0
LINE
  5
3B9
100
AcDbEntity
  8
基本作図レイヤ
  6
CONTINUOUS
 62
     2
100
AcDbLine
 10
133.0
 20
88.912549
 30
0.0
 11
133.0
 21
90.866025
 31
0.0
  0
LINE
  5
3BA
100
AcDbEntity
  8
基本作図レイヤ
  6
CONTINUOUS
 62
     2
100
AcDbLine
 10
133.0
 20
67.466025
 30
0.0
 11
134.5
 21
67.466025
 31
0.0
  0
LINE
  5
3BB
100
AcDbEntity
  8
基本作図レイヤ
  6
CONTINUOUS
 62
     2
100
AcDbLine
 10
133.5
 20
66.716025
 30
0.0
 11
135.5
 21
66.716025
 31
0.0
  0
LINE
  5
3BC
100
AcDbEntity
  8
基本作図レイヤ
  6
CONTINUOUS
 62
     2
100
AcDbLine
 10
133.0
 20
67.466025
 30
0.0
 11
133.5
 21
67.466025
 31
0.0
  0
LINE
  5
3BD
100
AcDbEntity
  8
基本作図レイヤ
  6
CONTINUOUS
 62
     2
100
AcDbLine
 10
133.5
 20
66.466025
 30
0.0
 11
133.5
 21
64.141025
 31
0.0
  0
LINE
  5
3BE
100
AcDbEntity
  8
基本作図レイヤ
  6
CONTINUOUS
 62
     2
100
AcDbLine
 10
133.7
 20
63.966025
 30
0.0
 11
135.3
 21
63.966025
 31
0.0
  0
LINE
  5
3BF
100
AcDbEntity
  8
基本作図レイヤ
  6
CONTINUOUS
 62
     2
100
AcDbLine
 10
135.5
 20
64.141025
 30
0.0
 11
135.5
 21
66.466025
 31
0.0
  0
LINE
  5
3C0
100
AcDbEntity
  8
基本作図レイヤ
  6
CONTINUOUS
 62
     2
100
AcDbLine
 10
135.5
 20
67.466025
 30
0.0
 11
136.0
 21
67.466025
 31
0.0
  0
LINE
  5
3C1
100
AcDbEntity
  8
基本作図レイヤ
  6
CONTINUOUS
 62
     2
100
AcDbLine
 10
133.5
 20
64.141025
 30
0.0
 11
133.7
 21
63.966025
 31
0.0
  0
LINE
  5
3C2
100
AcDbEntity
  8
基本作図レイヤ
  6
CONTINUOUS
 62
     2
100
AcDbLine
 10
135.3
 20
63.966025
 30
0.0
 11
135.5
 21
64.141025
 31
0.0
  0
LINE
  5
3C3
100
AcDbEntity
  8
基本作図レイヤ
  6
CONTINUOUS
 62
     2
100
AcDbLine
 10
133.5
 20
64.141025
 30
0.0
 11
135.5
 21
64.141025
 31
0.0
  0
LINE
  5
3C4
100
AcDbEntity
  8
基本作図レイヤ
  6
CONTINUOUS
 62
     2
100
AcDbLine
 10
133.5
 20
63.716025
 30
0.0
 11
135.5
 21
63.716025
 31
0.0
  0
LINE
  5
3C5
100
AcDbEntity
  8
基本作図レイヤ
  6
CONTINUOUS
 62
     2
100
AcDbLine
 10
133.7
 20
62.966025
 30
0.0
 11
135.3
 21
62.966025
 31
0.0
  0
LINE
  5
3C6
100
AcDbEntity
  8
基本作図レイヤ
  6
CONTINUOUS
 62
     2
100
AcDbLine
 10
135.3
 20
62.966025
 30
0.0
 11
135.3
 21
63.966025
 31
0.0
  0
LINE
  5
3C7
100
AcDbEntity
  8
基本作図レイヤ
  6
CONTINUOUS
 62
     2
100
AcDbLine
 10
134.5
 20
62.504145
 30
0.0
 11
135.3
 21
62.966025
 31
0.0
  0
LINE
  5
3C8
100
AcDbEntity
  8
基本作図レイヤ
  6
CONTINUOUS
 62
     2
100
AcDbLine
 10
133.7
 20
62.966025
 30
0.0
 11
134.5
 21
62.504145
 31
0.0
  0
LINE
  5
3C9
100
AcDbEntity
  8
基本作図レイヤ
  6
CONTINUOUS
 62
     2
100
AcDbLine
 10
133.7
 20
63.966025
 30
0.0
 11
133.7
 21
62.966025
 31
0.0
  0
LINE
  5
3CA
100
AcDbEntity
  8
基本作図レイヤ
  6
CONTINUOUS
 62
     2
100
AcDbLine
 10
135.5
 20
66.466025
 30
0.0
 11
135.5
 21
67.466025
 31
0.0
  0
LINE
  5
3CB
100
AcDbEntity
  8
基本作図レイヤ
  6
CONTINUOUS
 62
     2
100
AcDbLine
 10
133.5
 20
67.466025
 30
0.0
 11
133.5
 21
66.466025
 31
0.0
  0
LINE
  5
3CC
100
AcDbEntity
  8
基本作図レイヤ
  6
CONTINUOUS
 62
     2
100
AcDbLine
 10
139.625
 20
64.460844
 30
0.0
 11
139.625
 21
64.466025
 31
0.0
  0
LINE
  5
3CD
100
AcDbEntity
  8
基本作図レイヤ
  6
CONTINUOUS
 62
     2
100
AcDbLine
 10
130.625
 20
61.716025
 30
0.0
 11
130.125
 21
62.216025
 31
0.0
  0
LINE
  5
3CE
100
AcDbEntity
  8
基本作図レイヤ
  6
CONTINUOUS
 62
     2
100
AcDbLine
 10
138.875
 20
62.216025
 30
0.0
 11
138.375
 21
61.716025
 31
0.0
  0
LINE
  5
3CF
100
AcDbEntity
  8
基本作図レイヤ
  6
CONTINUOUS
 62
     2
100
AcDbLine
 10
139.625
 20
64.466025
 30
0.0
 11
140.5
 21
64.466025
 31
0.0
  0
LINE
  5
3D0
100
AcDbEntity
  8
基本作図レイヤ
  6
CONTINUOUS
 62
     2
100
AcDbLine
 10
133.4
 20
67.466025
 30
0.0
 11
133.5
 21
67.366025
 31
0.0
  0
LINE
  5
3D1
100
AcDbEntity
  8
基本作図レイヤ
  6
CONTINUOUS
 62
     2
100
AcDbLine
 10
128.5
 20
67.466025
 30
0.0
 11
127.875
 21
67.105181
 31
0.0
  0
LINE
  5
3D2
100
AcDbEntity
  8
基本作図レイヤ
  6
CONTINUOUS
 62
     2
100
AcDbLine
 10
127.875
 20
67.105181
 30
0.0
 11
127.875
 21
64.826869
 31
0.0
  0
LINE
  5
3D3
100
AcDbEntity
  8
基本作図レイヤ
  6
CONTINUOUS
 62
     2
100
AcDbLine
 10
127.875
 20
64.826869
 30
0.0
 11
128.5
 21
64.466025
 31
0.0
  0
LINE
  5
3D4
100
AcDbEntity
  8
基本作図レイヤ
  6
CONTINUOUS
 62
     2
100
AcDbLine
 10
128.5
 20
64.466025
 30
0.0
 11
130.125
 21
64.466025
 31
0.0
  0
LINE
  5
3D5
100
AcDbEntity
  8
基本作図レイヤ
  6
CONTINUOUS
 62
     2
100
AcDbLine
 10
130.125
 20
64.466025
 30
0.0
 11
130.125
 21
62.216025
 31
0.0
  0
LINE
  5
3D6
100
AcDbEntity
  8
基本作図レイヤ
  6
CONTINUOUS
 62
     2
100
AcDbLine
 10
130.625
 20
61.716025
 30
0.0
 11
138.375
 21
61.716025
 31
0.0
  0
LINE
  5
3D7
100
AcDbEntity
  8
基本作図レイヤ
  6
CONTINUOUS
 62
     2
100
AcDbLine
 10
138.875
 20
62.216025
 30
0.0
 11
138.875
 21
64.466025
 31
0.0
  0
LINE
  5
3D8
100
AcDbEntity
  8
基本作図レイヤ
  6
CONTINUOUS
 62
     2
100
AcDbLine
 10
138.875
 20
64.466025
 30
0.0
 11
139.625
 21
64.466025
 31
0.0
  0
LINE
  5
3D9
100
AcDbEntity
  8
基本作図レイヤ
  6
CONTINUOUS
 62
     2
100
AcDbLine
 10
140.5
 20
64.466025
 30
0.0
 11
141.125
 21
64.826869
 31
0.0
  0
LINE
  5
3DA
100
AcDbEntity
  8
基本作図レイヤ
  6
CONTINUOUS
 62
     2
100
AcDbLine
 10
141.125
 20
64.826869
 30
0.0
 11
141.125
 21
67.105181
 31
0.0
  0
LINE
  5
3DB
100
AcDbEntity
  8
基本作図レイヤ
  6
CONTINUOUS
 62
     2
100
AcDbLine
 10
141.125
 20
67.105181
 30
0.0
 11
140.5
 21
67.466025
 31
0.0
  0
LINE
  5
3DC
100
AcDbEntity
  8
基本作図レイヤ
  6
CONTINUOUS
 62
     2
100
AcDbLine
 10
135.5
 20
67.366025
 30
0.0
 11
135.6
 21
67.466025
 31
0.0
  0
LINE
  5
3DD
100
AcDbEntity
  8
基本作図レイヤ
  6
CONTINUOUS
 62
     2
100
AcDbLine
 10
133.5
 20
67.466025
 30
0.0
 11
135.5
 21
67.466025
 31
0.0
  0
LINE
  5
3DE
100
AcDbEntity
  8
基本作図レイヤ
  6
CONTINUOUS
 62
     2
100
AcDbLine
 10
140.5
 20
67.466025
 30
0.0
 11
136.0
 21
67.466025
 31
0.0
  0
LINE
  5
3DF
100
AcDbEntity
  8
基本作図レイヤ
  6
CONTINUOUS
 62
     2
100
AcDbLine
 10
133.0
 20
67.466025
 30
0.0
 11
128.5
 21
67.466025
 31
0.0
  0
LINE
  5
3E0
100
AcDbEntity
  8
基本作図レイヤ
  6
CONTINUOUS
 62
     2
100
AcDbLine
 10
179.416846
 20
116.012549
 30
0.0
 11
179.416846
 21
110.262549
 31
0.0
  0
ARC
  5
3E1
100
AcDbEntity
  8
基本作図レイヤ
  6
CONTINUOUS
 62
     2
100
AcDbCircle
 10
178.416846
 20
110.262549
 30
0.0
 40
1.0
100
AcDbArc
 50
270.0
 51
0.0
  0
LINE
  5
3E2
100
AcDbEntity
  8
基本作図レイヤ
  6
CONTINUOUS
 62
     2
100
AcDbLine
 10
178.416846
 20
109.262549
 30
0.0
 11
169.172778
 21
109.262549
 31
0.0
  0
LINE
  5
3E3
100
AcDbEntity
  8
基本作図レイヤ
  6
CONTINUOUS
 62
     2
100
AcDbLine
 10
154.5
 20
96.889393
 30
0.0
 11
154.5
 21
88.741021
 31
0.0
  0
ARC
  5
3E4
100
AcDbEntity
  8
基本作図レイヤ
  6
CONTINUOUS
 62
     2
100
AcDbCircle
 10
159.5
 20
88.741021
 30
0.0
 40
5.0
100
AcDbArc
 50
180.0
 51
248.594663
  0
ARC
  5
3E5
100
AcDbEntity
  8
基本作図レイヤ
  6
CONTINUOUS
 62
     2
100
AcDbCircle
 10
134.5
 20
24.966025
 30
0.0
 40
63.5
100
AcDbArc
 50
67.421993
 51
68.450885
  0
ARC
  5
3E6
100
AcDbEntity
  8
基本作図レイヤ
  6
CONTINUOUS
 62
     2
100
AcDbCircle
 10
160.799952
 20
88.216025
 30
0.0
 40
5.0
100
AcDbArc
 50
247.421993
 51
270.0
  0
LINE
  5
3E7
100
AcDbEntity
  8
基本作図レイヤ
  6
CONTINUOUS
 62
     2
100
AcDbLine
 10
89.566846
 20
116.012549
 30
0.0
 11
89.566846
 21
110.262549
 31
0.0
  0
ARC
  5
3E8
100
AcDbEntity
  8
基本作図レイヤ
  6
CONTINUOUS
 62
     2
100
AcDbCircle
 10
90.566846
 20
110.262549
 30
0.0
 40
1.0
100
AcDbArc
 50
180.0
 51
270.0
  0
LINE
  5
3E9
100
AcDbEntity
  8
基本作図レイヤ
  6
CONTINUOUS
 62
     2
100
AcDbLine
 10
114.5
 20
96.889393
 30
0.0
 11
114.5
 21
88.741021
 31
0.0
  0
ARC
  5
3EA
100
AcDbEntity
  8
基本作図レイヤ
  6
CONTINUOUS
 62
     2
100
AcDbCircle
 10
109.5
 20
88.741021
 30
0.0
 40
5.0
100
AcDbArc
 50
291.405337
 51
0.0
  0
ARC
  5
3EB
100
AcDbEntity
  8
基本作図レイヤ
  6
CONTINUOUS
 62
     2
100
AcDbCircle
 10
134.5
 20
24.966025
 30
0.0
 40
63.5
100
AcDbArc
 50
111.549115
 51
115.649373
  0
LINE
  5
3EC
100
AcDbEntity
  8
基本作図レイヤ
  6
CONTINUOUS
 62
     2
100
AcDbLine
 10
97.5
 20
81.716025
 30
0.0
 11
104.848904
 21
81.716025
 31
0.0
  0
ARC
  5
3ED
100
AcDbEntity
  8
基本作図レイヤ
  6
CONTINUOUS
 62
     2
100
AcDbCircle
 10
104.848904
 20
86.716025
 30
0.0
 40
5.0
100
AcDbArc
 50
270.0
 51
295.649373
  0
LINE
  5
3EE
100
AcDbEntity
  8
基本作図レイヤ
  6
CONTINUOUS
 62
     2
100
AcDbLine
 10
108.866209
 20
101.537362
 30
0.0
 11
110.465109
 21
101.222824
 31
0.0
  0
ARC
  5
3EF
100
AcDbEntity
  8
基本作図レイヤ
  6
CONTINUOUS
 62
     2
100
AcDbCircle
 10
109.5
 20
96.316852
 30
0.0
 40
5.0
100
AcDbArc
 50
0.0
 51
78.870811
  0
LINE
  5
3F0
100
AcDbEntity
  8
基本作図レイヤ
  6
CONTINUOUS
 62
     2
100
AcDbLine
 10
90.566846
 20
109.262549
 30
0.0
 11
99.699996
 21
109.262549
 31
0.0
  0
ARC
  5
3F1
100
AcDbEntity
  8
基本作図レイヤ
  6
CONTINUOUS
 62
     2
100
AcDbCircle
 10
110.98945
 20
112.330501
 30
0.0
 40
11.0
100
AcDbArc
 50
199.815713
 51
258.870811
  0
ARC
  5
3F2
100
AcDbEntity
  8
基本作図レイヤ
  6
CONTINUOUS
 62
     2
100
AcDbCircle
 10
99.699996
 20
108.262549
 30
0.0
 40
1.0
100
AcDbArc
 50
19.815713
 51
90.0
  0
ARC
  5
3F3
100
AcDbEntity
  8
基本作図レイヤ
  6
CONTINUOUS
 62
     2
100
AcDbCircle
 10
110.98945
 20
112.330501
 30
0.0
 40
7.5
100
AcDbArc
 50
201.262835
 51
258.870811
  0
LINE
  5
3F4
100
AcDbEntity
  8
基本作図レイヤ
  6
CONTINUOUS
 62
     2
100
AcDbLine
 10
101.758373
 20
114.902592
 30
0.0
 11
104.0
 21
109.61065
 31
0.0
  0
ARC
  5
3F5
100
AcDbEntity
  8
基本作図レイヤ
  6
CONTINUOUS
 62
     2
100
AcDbCircle
 10
100.837577
 20
114.512549
 30
0.0
 40
1.0
100
AcDbArc
 50
22.957148
 51
90.0
  0
ARC
  5
3F6
100
AcDbEntity
  8
基本作図レイヤ
  6
CONTINUOUS
 62
     2
100
AcDbCircle
 10
158.01055
 20
112.330501
 30
0.0
 40
7.5
100
AcDbArc
 50
281.129189
 51
338.737165
  0
LINE
  5
3F7
100
AcDbEntity
  8
基本作図レイヤ
  6
CONTINUOUS
 62
     2
100
AcDbLine
 10
167.241627
 20
114.902592
 30
0.0
 11
165.0
 21
109.61065
 31
0.0
  0
ARC
  5
3F8
100
AcDbEntity
  8
基本作図レイヤ
  6
CONTINUOUS
 62
     2
100
AcDbCircle
 10
168.162423
 20
114.512549
 30
0.0
 40
1.0
100
AcDbArc
 50
90.0
 51
157.042852
  0
ARC
  5
3F9
100
AcDbEntity
  8
基本作図レイヤ
  6
CONTINUOUS
 62
     2
100
AcDbCircle
 10
159.5
 20
96.316852
 30
0.0
 40
5.0
100
AcDbArc
 50
101.129189
 51
180.0
  0
ARC
  5
3FA
100
AcDbEntity
  8
基本作図レイヤ
  6
CONTINUOUS
 62
     2
100
AcDbCircle
 10
158.01055
 20
112.330501
 30
0.0
 40
11.0
100
AcDbArc
 50
281.129189
 51
340.184287
  0
LINE
  5
3FB
100
AcDbEntity
  8
基本作図レイヤ
  6
CONTINUOUS
 62
     2
100
AcDbLine
 10
160.133791
 20
101.537362
 30
0.0
 11
158.534891
 21
101.222824
 31
0.0
  0
ARC
  5
3FC
100
AcDbEntity
  8
基本作図レイヤ
  6
CONTINUOUS
 62
     2
100
AcDbCircle
 10
169.300004
 20
108.262549
 30
0.0
 40
1.0
100
AcDbArc
 50
90.0
 51
160.184287
  0
LINE
  5
3FD
100
AcDbEntity
  8
基本作図レイヤ
  6
CONTINUOUS
 62
     2
100
AcDbLine
 10
133.0
 20
78.366025
 30
0.0
 11
133.0
 21
88.912549
 31
0.0
  0
LINE
  5
3FE
100
AcDbEntity
  8
基本作図レイヤ
  6
CONTINUOUS
 62
     2
100
AcDbLine
 10
136.0
 20
88.912549
 30
0.0
 11
136.0
 21
78.366025
 31
0.0
  0
ARC
  5
3FF
100
AcDbEntity
  8
基本作図レイヤ
  6
CONTINUOUS
 62
     2
100
AcDbCircle
 10
136.25
 20
78.762549
 30
0.0
 40
0.25
100
AcDbArc
 50
180.0
 51
270.0
  0
ARC
  5
400
100
AcDbEntity
  8
基本作図レイヤ
  6
CONTINUOUS
 62
     2
100
AcDbCircle
 10
132.75
 20
78.762549
 30
0.0
 40
0.25
100
AcDbArc
 50
270.0
 51
0.0
  0
LINE
  5
401
100
AcDbEntity
  8
基本作図レイヤ
  6
CONTINUOUS
 62
     2
100
AcDbLine
 10
132.326924
 20
78.512549
 30
0.0
 11
133.0
 21
78.512549
 31
0.0
  0
LINE
  5
402
100
AcDbEntity
  8
基本作図レイヤ
  6
CONTINUOUS
 62
     2
100
AcDbLine
 10
152.221688
 20
84.762549
 30
0.0
 11
153.066147
 21
83.299903
 31
0.0
  0
ARC
  5
403
100
AcDbEntity
  8
基本作図レイヤ
  6
CONTINUOUS
 62
     2
100
AcDbCircle
 10
157.396274
 20
85.799903
 30
0.0
 40
5.0
100
AcDbArc
 50
210.0
 51
249.37498
  0
ARC
  5
404
100
AcDbEntity
  8
基本作図レイヤ
  6
CONTINUOUS
 62
     2
100
AcDbCircle
 10
150.056624
 20
83.512549
 30
0.0
 40
2.5
100
AcDbArc
 50
30.0
 51
90.0
  0
LINE
  5
405
100
AcDbEntity
  8
基本作図レイヤ
  6
CONTINUOUS
 62
     2
100
AcDbLine
 10
144.0
 20
86.012549
 30
0.0
 11
150.056624
 21
86.012549
 31
0.0
  0
ARC
  5
406
100
AcDbEntity
  8
基本作図レイヤ
  6
CONTINUOUS
 62
     2
100
AcDbCircle
 10
144.0
 20
87.512549
 30
0.0
 40
1.5
100
AcDbArc
 50
180.0
 51
270.0
  0
ARC
  5
407
100
AcDbEntity
  8
基本作図レイヤ
  6
CONTINUOUS
 62
     2
100
AcDbCircle
 10
134.5
 20
24.966025
 30
0.0
 40
60.0
100
AcDbArc
 50
65.853152
 51
80.328445
  0
ARC
  5
408
100
AcDbEntity
  8
基本作図レイヤ
  6
CONTINUOUS
 62
     2
100
AcDbCircle
 10
145.0
 20
86.577713
 30
0.0
 40
2.5
100
AcDbArc
 50
180.0
 51
260.328445
  0
ARC
  5
409
100
AcDbEntity
  8
基本作図レイヤ
  6
CONTINUOUS
 62
     2
100
AcDbCircle
 10
134.5
 20
24.966025
 30
0.0
 40
60.0
100
AcDbArc
 50
99.671555
 51
101.460665
  0
ARC
  5
40A
100
AcDbEntity
  8
基本作図レイヤ
  6
CONTINUOUS
 62
     2
100
AcDbCircle
 10
124.0
 20
86.577713
 30
0.0
 40
2.5
100
AcDbArc
 50
279.671555
 51
0.0
  0
ARC
  5
40B
100
AcDbEntity
  8
基本作図レイヤ
  6
CONTINUOUS
 62
     2
100
AcDbCircle
 10
150.0
 20
91.012549
 30
0.0
 40
1.5
100
AcDbArc
 50
270.0
 51
0.0
  0
LINE
  5
40C
100
AcDbEntity
  8
基本作図レイヤ
  6
CONTINUOUS
 62
     2
100
AcDbLine
 10
147.0
 20
89.512549
 30
0.0
 11
150.0
 21
89.512549
 31
0.0
  0
ARC
  5
40D
100
AcDbEntity
  8
基本作図レイヤ
  6
CONTINUOUS
 62
     2
100
AcDbCircle
 10
147.0
 20
91.012549
 30
0.0
 40
1.5
100
AcDbArc
 50
180.0
 51
270.0
  0
LINE
  5
40E
100
AcDbEntity
  8
基本作図レイヤ
  6
CONTINUOUS
 62
     2
100
AcDbLine
 10
149.325
 20
89.512549
 30
0.0
 11
149.325
 21
86.012549
 31
0.0
  0
LINE
  5
40F
100
AcDbEntity
  8
基本作図レイヤ
  6
CONTINUOUS
 62
     2
100
AcDbLine
 10
147.675
 20
89.512549
 30
0.0
 11
147.675
 21
86.012549
 31
0.0
  0
LINE
  5
410
100
AcDbEntity
  8
基本作図レイヤ
  6
CONTINUOUS
 62
     2
100
AcDbLine
 10
136.598076
 20
78.512549
 30
0.0
 11
137.0
 21
80.012549
 31
0.0
  0
LINE
  5
411
100
AcDbEntity
  8
基本作図レイヤ
  6
CONTINUOUS
 62
     2
100
AcDbLine
 10
136.0
 20
78.512549
 30
0.0
 11
136.598076
 21
78.512549
 31
0.0
  0
LINE
  5
412
100
AcDbEntity
  8
基本作図レイヤ
  6
CONTINUOUS
 62
     2
100
AcDbLine
 10
136.0
 20
78.512549
 30
0.0
 11
136.598076
 21
78.512549
 31
0.0
  0
LINE
  5
413
100
AcDbEntity
  8
基本作図レイヤ
  6
CONTINUOUS
 62
     2
100
AcDbLine
 10
137.0
 20
109.912549
 30
0.0
 11
135.9
 21
109.912549
 31
0.0
  0
LINE
  5
414
100
AcDbEntity
  8
基本作図レイヤ
  6
CONTINUOUS
 62
     2
100
AcDbLine
 10
133.1
 20
109.912549
 30
0.0
 11
132.0
 21
109.912549
 31
0.0
  0
LINE
  5
415
100
AcDbEntity
  8
基本作図レイヤ
  6
CONTINUOUS
 62
     2
100
AcDbLine
 10
132.401924
 20
78.512549
 30
0.0
 11
132.0
 21
80.012549
 31
0.0
  0
LINE
  5
416
100
AcDbEntity
  8
基本作図レイヤ
  6
CONTINUOUS
 62
     2
100
AcDbLine
 10
132.401924
 20
78.512549
 30
0.0
 11
133.0
 21
78.512549
 31
0.0
  0
LINE
  5
417
100
AcDbEntity
  8
基本作図レイヤ
  6
CONTINUOUS
 62
     2
100
AcDbLine
 10
138.5
 20
100.262549
 30
0.0
 11
138.750861
 21
100.51341
 31
0.0
  0
LINE
  5
418
100
AcDbEntity
  8
基本作図レイヤ
  6
CONTINUOUS
 62
     2
100
AcDbLine
 10
138.5
 20
98.262549
 30
0.0
 11
138.5
 21
100.262549
 31
0.0
  0
LINE
  5
419
100
AcDbEntity
  8
基本作図レイヤ
  6
CONTINUOUS
 62
     2
100
AcDbLine
 10
140.0
 20
97.762549
 30
0.0
 11
139.5
 21
97.262549
 31
0.0
  0
LINE
  5
41A
100
AcDbEntity
  8
基本作図レイヤ
  6
CONTINUOUS
 62
     2
100
AcDbLine
 10
138.5
 20
101.262549
 30
0.0
 11
139.0
 21
101.762549
 31
0.0
  0
LINE
  5
41B
100
AcDbEntity
  8
基本作図レイヤ
  6
CONTINUOUS
 62
     2
100
AcDbLine
 10
138.5
 20
99.512549
 30
0.0
 11
138.5
 21
101.262549
 31
0.0
  0
LINE
  5
41C
100
AcDbEntity
  8
基本作図レイヤ
  6
CONTINUOUS
 62
     2
100
AcDbLine
 10
138.25
 20
99.262549
 30
0.0
 11
138.5
 21
99.512549
 31
0.0
  0
LINE
  5
41D
100
AcDbEntity
  8
基本作図レイヤ
  6
CONTINUOUS
 62
     2
100
AcDbLine
 10
138.5
 20
101.262549
 30
0.0
 11
139.0
 21
101.262549
 31
0.0
  0
LINE
  5
41E
100
AcDbEntity
  8
基本作図レイヤ
  6
CONTINUOUS
 62
     2
100
AcDbLine
 10
138.75
 20
101.512549
 30
0.0
 11
138.75
 21
100.512549
 31
0.0
  0
LINE
  5
41F
100
AcDbEntity
  8
基本作図レイヤ
  6
CONTINUOUS
 62
     2
100
AcDbLine
 10
138.5
 20
100.512549
 30
0.0
 11
138.75
 21
100.512549
 31
0.0
  0
LINE
  5
420
100
AcDbEntity
  8
基本作図レイヤ
  6
CONTINUOUS
 62
     2
100
AcDbLine
 10
130.5
 20
100.262549
 30
0.0
 11
130.249139
 21
100.51341
 31
0.0
  0
LINE
  5
421
100
AcDbEntity
  8
基本作図レイヤ
  6
CONTINUOUS
 62
     2
100
AcDbLine
 10
130.5
 20
101.262549
 30
0.0
 11
130.0
 21
101.762549
 31
0.0
  0
LINE
  5
422
100
AcDbEntity
  8
基本作図レイヤ
  6
CONTINUOUS
 62
     2
100
AcDbLine
 10
130.5
 20
99.512549
 30
0.0
 11
130.5
 21
101.262549
 31
0.0
  0
LINE
  5
423
100
AcDbEntity
  8
基本作図レイヤ
  6
CONTINUOUS
 62
     2
100
AcDbLine
 10
130.75
 20
99.262549
 30
0.0
 11
130.5
 21
99.512549
 31
0.0
  0
LINE
  5
424
100
AcDbEntity
  8
基本作図レイヤ
  6
CONTINUOUS
 62
     2
100
AcDbLine
 10
130.25
 20
101.512549
 30
0.0
 11
130.25
 21
100.512549
 31
0.0
  0
LINE
  5
425
100
AcDbEntity
  8
基本作図レイヤ
  6
CONTINUOUS
 62
     2
100
AcDbLine
 10
130.5
 20
100.512549
 30
0.0
 11
130.25
 21
100.512549
 31
0.0
  0
LINE
  5
426
100
AcDbEntity
  8
基本作図レイヤ
  6
CONTINUOUS
 62
     2
100
AcDbLine
 10
130.5
 20
98.262549
 30
0.0
 11
130.5
 21
100.262549
 31
0.0
  0
LINE
  5
427
100
AcDbEntity
  8
基本作図レイヤ
  6
CONTINUOUS
 62
     2
100
AcDbLine
 10
129.0
 20
97.762549
 30
0.0
 11
129.5
 21
97.262549
 31
0.0
  0
LINE
  5
428
100
AcDbEntity
  8
基本作図レイヤ
  6
CONTINUOUS
 62
     2
100
AcDbLine
 10
137.075
 20
99.012549
 30
0.0
 11
138.5
 21
99.012549
 31
0.0
  0
LINE
  5
429
100
AcDbEntity
  8
基本作図レイヤ
  6
CONTINUOUS
 62
     2
100
AcDbLine
 10
137.075
 20
98.512549
 30
0.0
 11
138.5
 21
98.512549
 31
0.0
  0
POLYLINE
  5
42A
100
AcDbEntity
  8
基本作図レイヤ
  6
CONTINUOUS
 62
     2
100
AcDb2dPolyline
 66
     1
 10
0.0
 20
0.0
 30
0.0
 70
   128
  0
VERTEX
  5
42B
100
AcDbEntity
  8
基本作図レイヤ
  6
CONTINUOUS
 62
     2
100
AcDbVertex
100
AcDb2dVertex
 10
138.25
 20
99.262549
 30
0.0
  0
VERTEX
  5
42C
100
AcDbEntity
  8
基本作図レイヤ
  6
CONTINUOUS
 62
     2
100
AcDbVertex
100
AcDb2dVertex
 10
138.176421
 20
99.211263
 30
0.0
  0
SEQEND
  5
42D
100
AcDbEntity
  8
基本作図レイヤ
  6
CONTINUOUS
 62
     2
  0
ARC
  5
42E
100
AcDbEntity
  8
基本作図レイヤ
  6
CONTINUOUS
 62
     2
100
AcDbCircle
 10
131.761174
 20
109.518345
 30
0.0
 40
12.140484
100
AcDbArc
 50
301.080229
 51
301.898612
  0
ARC
  5
42F
100
AcDbEntity
  8
基本作図レイヤ
  6
CONTINUOUS
 62
     2
100
AcDbCircle
 10
137.26198
 20
100.993731
 30
0.0
 40
2.023841
100
AcDbArc
 50
287.737052
 51
292.257537
  0
ARC
  5
430
100
AcDbEntity
  8
基本作図レイヤ
  6
CONTINUOUS
 62
     2
100
AcDbCircle
 10
137.833107
 20
99.977821
 30
0.0
 40
0.912858
100
AcDbArc
 50
263.197048
 51
272.852888
  0
ARC
  5
431
100
AcDbEntity
  8
基本作図レイヤ
  6
CONTINUOUS
 62
     2
100
AcDbCircle
 10
137.908795
 20
99.752129
 30
0.0
 40
0.705121
100
AcDbArc
 50
241.161359
 51
254.888772
  0
ARC
  5
432
100
AcDbEntity
  8
基本作図レイヤ
  6
CONTINUOUS
 62
     2
100
AcDbCircle
 10
139.157992
 20
103.633944
 30
0.0
 40
4.771928
100
AcDbArc
 50
248.587435
 51
250.545769
  0
ARC
  5
433
100
AcDbEntity
  8
基本作図レイヤ
  6
CONTINUOUS
 62
     2
100
AcDbCircle
 10
137.449065
 20
98.371885
 30
0.0
 40
0.820183
100
AcDbArc
 50
92.320814
 51
102.392096
  0
ARC
  5
434
100
AcDbEntity
  8
基本作図レイヤ
  6
CONTINUOUS
 62
     2
100
AcDbCircle
 10
137.509363
 20
98.712145
 30
0.0
 40
0.517872
100
AcDbArc
 50
117.149239
 51
135.510929
  0
ARC
  5
435
100
AcDbEntity
  8
基本作図レイヤ
  6
CONTINUOUS
 62
     2
100
AcDbCircle
 10
137.736785
 20
98.390169
 30
0.0
 40
0.908469
100
AcDbArc
 50
131.071358
 51
136.757531
  0
LINE
  5
436
100
AcDbEntity
  8
基本作図レイヤ
  6
CONTINUOUS
 62
     2
100
AcDbLine
 10
138.008989
 20
98.262549
 30
0.0
 11
138.5
 21
98.262549
 31
0.0
  0
ELLIPSE
  5
437
100
AcDbEntity
  8
基本作図レイヤ
  6
CONTINUOUS
 62
     2
100
AcDbEllipse
 10
137.549266
 20
98.118077
 30
0.0
 11
-0.4101379156422311
 21
-0.2378799910724884
 31
0.0
210
0.0
220
0.0
230
1.0
 40
0.738743
 41
0.0
 42
6.2831853071796004
  0
LINE
  5
438
100
AcDbEntity
  8
基本作図レイヤ
  6
CONTINUOUS
 62
     2
100
AcDbLine
 10
137.075
 20
98.262549
 30
0.0
 11
137.194266
 21
98.262549
 31
0.0
  0
ELLIPSE
  5
439
100
AcDbEntity
  8
基本作図レイヤ
  6
CONTINUOUS
 62
     2
100
AcDbEllipse
 10
131.450734
 20
98.118077
 30
0.0
 11
0.4101379156422313
 21
-0.237879991072488
 31
0.0
210
0.0
220
0.0
230
1.0
 40
0.738743
 41
0.0
 42
6.2831853071796004
  0
LINE
  5
43A
100
AcDbEntity
  8
基本作図レイヤ
  6
CONTINUOUS
 62
     2
100
AcDbLine
 10
131.925
 20
98.512549
 30
0.0
 11
130.5
 21
98.512549
 31
0.0
  0
LINE
  5
43B
100
AcDbEntity
  8
基本作図レイヤ
  6
CONTINUOUS
 62
     2
100
AcDbLine
 10
131.925
 20
99.012549
 30
0.0
 11
130.5
 21
99.012549
 31
0.0
  0
LINE
  5
43C
100
AcDbEntity
  8
基本作図レイヤ
  6
CONTINUOUS
 62
     2
100
AcDbLine
 10
131.925
 20
99.262549
 30
0.0
 11
130.75
 21
99.262549
 31
0.0
  0
POLYLINE
  5
43D
100
AcDbEntity
  8
基本作図レイヤ
  6
CONTINUOUS
 62
     2
100
AcDb2dPolyline
 66
     1
 10
0.0
 20
0.0
 30
0.0
 70
   128
  0
VERTEX
  5
43E
100
AcDbEntity
  8
基本作図レイヤ
  6
CONTINUOUS
 62
     2
100
AcDbVertex
100
AcDb2dVertex
 10
130.75
 20
99.262549
 30
0.0
  0
VERTEX
  5
43F
100
AcDbEntity
  8
基本作図レイヤ
  6
CONTINUOUS
 62
     2
100
AcDbVertex
100
AcDb2dVertex
 10
130.823579
 20
99.211263
 30
0.0
  0
SEQEND
  5
440
100
AcDbEntity
  8
基本作図レイヤ
  6
CONTINUOUS
 62
     2
  0
ARC
  5
441
100
AcDbEntity
  8
基本作図レイヤ
  6
CONTINUOUS
 62
     2
100
AcDbCircle
 10
137.238826
 20
109.518345
 30
0.0
 40
12.140484
100
AcDbArc
 50
238.101388
 51
238.919771
  0
ARC
  5
442
100
AcDbEntity
  8
基本作図レイヤ
  6
CONTINUOUS
 62
     2
100
AcDbCircle
 10
131.73802
 20
100.993731
 30
0.0
 40
2.023841
100
AcDbArc
 50
247.742463
 51
252.262948
  0
ARC
  5
443
100
AcDbEntity
  8
基本作図レイヤ
  6
CONTINUOUS
 62
     2
100
AcDbCircle
 10
131.166893
 20
99.977821
 30
0.0
 40
0.912858
100
AcDbArc
 50
267.147112
 51
276.802952
  0
ARC
  5
444
100
AcDbEntity
  8
基本作図レイヤ
  6
CONTINUOUS
 62
     2
100
AcDbCircle
 10
131.091205
 20
99.752129
 30
0.0
 40
0.705121
100
AcDbArc
 50
285.111228
 51
298.838641
  0
ARC
  5
445
100
AcDbEntity
  8
基本作図レイヤ
  6
CONTINUOUS
 62
     2
100
AcDbCircle
 10
129.842008
 20
103.633944
 30
0.0
 40
4.771928
100
AcDbArc
 50
289.454231
 51
291.412565
  0
ARC
  5
446
100
AcDbEntity
  8
基本作図レイヤ
  6
CONTINUOUS
 62
     2
100
AcDbCircle
 10
131.550935
 20
98.371885
 30
0.0
 40
0.820183
100
AcDbArc
 50
77.607904
 51
87.679186
  0
ARC
  5
447
100
AcDbEntity
  8
基本作図レイヤ
  6
CONTINUOUS
 62
     2
100
AcDbCircle
 10
131.490637
 20
98.712145
 30
0.0
 40
0.517872
100
AcDbArc
 50
44.489071
 51
62.850761
  0
ARC
  5
448
100
AcDbEntity
  8
基本作図レイヤ
  6
CONTINUOUS
 62
     2
100
AcDbCircle
 10
131.263215
 20
98.390169
 30
0.0
 40
0.908469
100
AcDbArc
 50
43.242469
 51
48.928642
  0
LINE
  5
449
100
AcDbEntity
  8
基本作図レイヤ
  6
CONTINUOUS
 62
     2
100
AcDbLine
 10
131.925
 20
98.262549
 30
0.0
 11
131.807227
 21
98.262549
 31
0.0
  0
LINE
  5
44A
100
AcDbEntity
  8
基本作図レイヤ
  6
CONTINUOUS
 62
     2
100
AcDbLine
 10
131.00794
 20
98.262549
 30
0.0
 11
130.5
 21
98.262549
 31
0.0
  0
LINE
  5
44B
100
AcDbEntity
  8
基本作図レイヤ
  6
CONTINUOUS
 62
     2
100
AcDbLine
 10
137.129904
 20
97.471524
 30
0.0
 11
137.0
 21
97.246524
 31
0.0
  0
LINE
  5
44C
100
AcDbEntity
  8
基本作図レイヤ
  6
CONTINUOUS
 62
     2
100
AcDbLine
 10
138.5
 20
98.262549
 30
0.0
 11
137.129904
 21
97.471524
 31
0.0
  0
LINE
  5
44D
100
AcDbEntity
  8
基本作図レイヤ
  6
CONTINUOUS
 62
     2
100
AcDbLine
 10
131.870096
 20
97.471524
 30
0.0
 11
132.0
 21
97.246524
 31
0.0
  0
LINE
  5
44E
100
AcDbEntity
  8
基本作図レイヤ
  6
CONTINUOUS
 62
     2
100
AcDbLine
 10
130.5
 20
98.262549
 30
0.0
 11
131.870096
 21
97.471524
 31
0.0
  0
LINE
  5
44F
100
AcDbEntity
  8
基本作図レイヤ
  6
CONTINUOUS
 62
     2
100
AcDbLine
 10
137.0
 20
99.262549
 30
0.0
 11
138.25
 21
99.262549
 31
0.0
  0
LINE
  5
450
100
AcDbEntity
  8
基本作図レイヤ
  6
CONTINUOUS
 62
     2
100
AcDbLine
 10
137.25
 20
99.262549
 30
0.0
 11
137.0
 21
99.512549
 31
0.0
  0
LINE
  5
451
100
AcDbEntity
  8
基本作図レイヤ
  6
CONTINUOUS
 62
     2
100
AcDbLine
 10
130.75
 20
99.262549
 30
0.0
 11
132.0
 21
99.262549
 31
0.0
  0
LINE
  5
452
100
AcDbEntity
  8
基本作図レイヤ
  6
CONTINUOUS
 62
     2
100
AcDbLine
 10
131.75
 20
99.262549
 30
0.0
 11
132.0
 21
99.512549
 31
0.0
  0
LINE
  5
453
100
AcDbEntity
  8
基本作図レイヤ
  6
CONTINUOUS
 62
     2
100
AcDbLine
 10
129.025
 20
105.262549
 30
0.0
 11
130.0
 21
105.262549
 31
0.0
  0
LINE
  5
454
100
AcDbEntity
  8
基本作図レイヤ
  6
CONTINUOUS
 62
     2
100
AcDbLine
 10
129.75
 20
107.762549
 30
0.0
 11
129.025
 21
107.34397
 31
0.0
  0
LINE
  5
455
100
AcDbEntity
  8
基本作図レイヤ
  6
CONTINUOUS
 62
     2
100
AcDbLine
 10
129.025
 20
107.34397
 30
0.0
 11
129.025
 21
105.262549
 31
0.0
  0
LINE
  5
456
100
AcDbEntity
  8
基本作図レイヤ
  6
CONTINUOUS
 62
     2
100
AcDbLine
 10
129.025
 20
105.262549
 30
0.0
 11
130.0
 21
105.262549
 31
0.0
  0
LINE
  5
457
100
AcDbEntity
  8
基本作図レイヤ
  6
CONTINUOUS
 62
     2
100
AcDbLine
 10
130.25
 20
104.262549
 30
0.0
 11
130.0
 21
104.262549
 31
0.0
  0
LINE
  5
458
100
AcDbEntity
  8
基本作図レイヤ
  6
CONTINUOUS
 62
     2
100
AcDbLine
 10
130.0
 20
104.262549
 30
0.0
 11
129.875
 21
104.262549
 31
0.0
  0
LINE
  5
459
100
AcDbEntity
  8
基本作図レイヤ
  6
CONTINUOUS
 62
     2
100
AcDbLine
 10
129.875
 20
105.262549
 30
0.0
 11
129.875
 21
104.262549
 31
0.0
  0
LINE
  5
45A
100
AcDbEntity
  8
基本作図レイヤ
  6
CONTINUOUS
 62
     2
100
AcDbLine
 10
132.0
 20
107.762549
 30
0.0
 11
129.75
 21
107.762549
 31
0.0
  0
LINE
  5
45B
100
AcDbEntity
  8
基本作図レイヤ
  6
CONTINUOUS
 62
     2
100
AcDbLine
 10
131.75
 20
107.762549
 30
0.0
 11
132.0
 21
107.512549
 31
0.0
  0
LINE
  5
45C
100
AcDbEntity
  8
基本作図レイヤ
  6
CONTINUOUS
 62
     2
100
AcDbLine
 10
138.75
 20
104.262549
 30
0.0
 11
139.0
 21
104.262549
 31
0.0
  0
LINE
  5
45D
100
AcDbEntity
  8
基本作図レイヤ
  6
CONTINUOUS
 62
     2
100
AcDbLine
 10
139.25
 20
107.762549
 30
0.0
 11
139.975
 21
107.34397
 31
0.0
  0
LINE
  5
45E
100
AcDbEntity
  8
基本作図レイヤ
  6
CONTINUOUS
 62
     2
100
AcDbLine
 10
139.975
 20
105.262549
 30
0.0
 11
139.975
 21
107.34397
 31
0.0
  0
LINE
  5
45F
100
AcDbEntity
  8
基本作図レイヤ
  6
CONTINUOUS
 62
     2
100
AcDbLine
 10
139.0
 20
105.262549
 30
0.0
 11
139.975
 21
105.262549
 31
0.0
  0
LINE
  5
460
100
AcDbEntity
  8
基本作図レイヤ
  6
CONTINUOUS
 62
     2
100
AcDbLine
 10
139.125
 20
105.262549
 30
0.0
 11
139.125
 21
104.262549
 31
0.0
  0
LINE
  5
461
100
AcDbEntity
  8
基本作図レイヤ
  6
CONTINUOUS
 62
     2
100
AcDbLine
 10
139.0
 20
104.262549
 30
0.0
 11
139.125
 21
104.262549
 31
0.0
  0
LINE
  5
462
100
AcDbEntity
  8
基本作図レイヤ
  6
CONTINUOUS
 62
     2
100
AcDbLine
 10
139.25
 20
107.762549
 30
0.0
 11
137.0
 21
107.762549
 31
0.0
  0
LINE
  5
463
100
AcDbEntity
  8
基本作図レイヤ
  6
CONTINUOUS
 62
     2
100
AcDbLine
 10
137.25
 20
107.762549
 30
0.0
 11
137.0
 21
107.512549
 31
0.0
  0
LINE
  5
464
100
AcDbEntity
  8
基本作図レイヤ
  6
CONTINUOUS
 62
     2
100
AcDbLine
 10
139.0
 20
101.762549
 30
0.0
 11
139.0
 21
105.262549
 31
0.0
  0
LINE
  5
465
100
AcDbEntity
  8
基本作図レイヤ
  6
CONTINUOUS
 62
     2
100
AcDbLine
 10
130.0
 20
101.762549
 30
0.0
 11
130.0
 21
105.262549
 31
0.0
  0
LINE
  5
466
100
AcDbEntity
  8
基本作図レイヤ
  6
CONTINUOUS
 62
     2
100
AcDbLine
 10
130.5
 20
101.262549
 30
0.0
 11
130.0
 21
101.262549
 31
0.0
  0
LINE
  5
467
100
AcDbEntity
  8
基本作図レイヤ
  6
CONTINUOUS
 62
     2
100
AcDbLine
 10
145.5
 20
103.012549
 30
0.0
 11
145.5
 21
91.012549
 31
0.0
  0
LINE
  5
468
100
AcDbEntity
  8
基本作図レイヤ
  6
CONTINUOUS
 62
     2
100
AcDbLine
 10
139.75
 20
97.512549
 30
0.0
 11
139.75
 21
96.512549
 31
0.0
  0
LINE
  5
469
100
AcDbEntity
  8
基本作図レイヤ
  6
CONTINUOUS
 62
     2
100
AcDbLine
 10
129.25
 20
97.512549
 30
0.0
 11
129.25
 21
96.512549
 31
0.0
  0
LINE
  5
46A
100
AcDbEntity
  8
基本作図レイヤ
  6
CONTINUOUS
 62
     2
100
AcDbLine
 10
139.5
 20
96.262549
 30
0.0
 11
139.5
 21
94.012549
 31
0.0
  0
LINE
  5
46B
100
AcDbEntity
  8
基本作図レイヤ
  6
CONTINUOUS
 62
     2
100
AcDbLine
 10
139.75
 20
96.512549
 30
0.0
 11
139.5
 21
96.262549
 31
0.0
  0
LINE
  5
46C
100
AcDbEntity
  8
基本作図レイヤ
  6
CONTINUOUS
 62
     2
100
AcDbLine
 10
129.25
 20
96.512549
 30
0.0
 11
129.5
 21
96.262549
 31
0.0
  0
LINE
  5
46D
100
AcDbEntity
  8
基本作図レイヤ
  6
CONTINUOUS
 62
     2
100
AcDbLine
 10
129.5
 20
96.262549
 30
0.0
 11
129.5
 21
94.012549
 31
0.0
  0
ARC
  5
46E
100
AcDbEntity
  8
基本作図レイヤ
  6
CONTINUOUS
 62
     2
100
AcDbCircle
 10
140.0
 20
91.512549
 30
0.0
 40
2.5
100
AcDbArc
 50
0.0
 51
90.0
  0
LINE
  5
46F
100
AcDbEntity
  8
基本作図レイヤ
  6
CONTINUOUS
 62
     2
100
AcDbLine
 10
142.5
 20
86.577713
 30
0.0
 11
142.5
 21
91.512549
 31
0.0
  0
ARC
  5
470
100
AcDbEntity
  8
基本作図レイヤ
  6
CONTINUOUS
 62
     2
100
AcDbCircle
 10
129.0
 20
91.512549
 30
0.0
 40
2.5
100
AcDbArc
 50
90.0
 51
180.0
  0
LINE
  5
471
100
AcDbEntity
  8
基本作図レイヤ
  6
CONTINUOUS
 62
     2
100
AcDbLine
 10
126.5
 20
86.577713
 30
0.0
 11
126.5
 21
91.512549
 31
0.0
  0
LINE
  5
472
100
AcDbEntity
  8
基本作図レイヤ
  6
CONTINUOUS
 62
     2
100
AcDbLine
 10
139.5
 20
94.012549
 30
0.0
 11
140.0
 21
94.012549
 31
0.0
  0
LINE
  5
473
100
AcDbEntity
  8
基本作図レイヤ
  6
CONTINUOUS
 62
     2
100
AcDbLine
 10
129.0
 20
94.012549
 30
0.0
 11
129.5
 21
94.012549
 31
0.0
  0
LINE
  5
474
100
AcDbEntity
  8
基本作図レイヤ
  6
CONTINUOUS
 62
     2
100
AcDbLine
 10
139.5
 20
97.262549
 30
0.0
 11
140.0
 21
97.262549
 31
0.0
  0
LINE
  5
475
100
AcDbEntity
  8
基本作図レイヤ
  6
CONTINUOUS
 62
     2
100
AcDbLine
 10
137.0
 20
97.262549
 30
0.0
 11
137.009252
 21
97.262549
 31
0.0
  0
LINE
  5
476
100
AcDbEntity
  8
基本作図レイヤ
  6
CONTINUOUS
 62
     2
100
AcDbLine
 10
129.0
 20
97.262549
 30
0.0
 11
129.5
 21
97.262549
 31
0.0
  0
LINE
  5
477
100
AcDbEntity
  8
基本作図レイヤ
  6
CONTINUOUS
 62
     2
100
AcDbLine
 10
139.5
 20
96.512549
 30
0.0
 11
139.75
 21
96.512549
 31
0.0
  0
LINE
  5
478
100
AcDbEntity
  8
基本作図レイヤ
  6
CONTINUOUS
 62
     2
100
AcDbLine
 10
129.25
 20
96.512549
 30
0.0
 11
129.5
 21
96.512549
 31
0.0
  0
LINE
  5
479
100
AcDbEntity
  8
基本作図レイヤ
  6
CONTINUOUS
 62
     2
100
AcDbLine
 10
140.0
 20
103.012549
 30
0.0
 11
140.0
 21
97.762549
 31
0.0
  0
LINE
  5
47A
100
AcDbEntity
  8
基本作図レイヤ
  6
CONTINUOUS
 62
     2
100
AcDbLine
 10
139.75
 20
101.762549
 30
0.0
 11
140.0
 21
101.762549
 31
0.0
  0
LINE
  5
47B
100
AcDbEntity
  8
基本作図レイヤ
  6
CONTINUOUS
 62
     2
100
AcDbLine
 10
140.125
 20
103.012549
 30
0.0
 11
140.125
 21
101.512549
 31
0.0
  0
LINE
  5
47C
100
AcDbEntity
  8
基本作図レイヤ
  6
CONTINUOUS
 62
     2
100
AcDbLine
 10
140.0
 20
101.512549
 30
0.0
 11
140.125
 21
101.512549
 31
0.0
  0
LINE
  5
47D
100
AcDbEntity
  8
基本作図レイヤ
  6
CONTINUOUS
 62
     2
100
AcDbLine
 10
129.0
 20
103.012549
 30
0.0
 11
129.0
 21
97.762549
 31
0.0
  0
LINE
  5
47E
100
AcDbEntity
  8
基本作図レイヤ
  6
CONTINUOUS
 62
     2
100
AcDbLine
 10
129.25
 20
101.762549
 30
0.0
 11
129.0
 21
101.762549
 31
0.0
  0
LINE
  5
47F
100
AcDbEntity
  8
基本作図レイヤ
  6
CONTINUOUS
 62
     2
100
AcDbLine
 10
128.875
 20
103.012549
 30
0.0
 11
128.875
 21
101.512549
 31
0.0
  0
LINE
  5
480
100
AcDbEntity
  8
基本作図レイヤ
  6
CONTINUOUS
 62
     2
100
AcDbLine
 10
129.0
 20
101.512549
 30
0.0
 11
128.875
 21
101.512549
 31
0.0
  0
LINE
  5
481
100
AcDbEntity
  8
基本作図レイヤ
  6
CONTINUOUS
 62
     2
100
AcDbLine
 10
137.0
 20
109.912549
 30
0.0
 11
137.0
 21
80.012549
 31
0.0
  0
LINE
  5
482
100
AcDbEntity
  8
基本作図レイヤ
  6
CONTINUOUS
 62
     2
100
AcDbLine
 10
139.5
 20
86.762549
 30
0.0
 11
139.0
 21
86.262549
 31
0.0
  0
LINE
  5
483
100
AcDbEntity
  8
基本作図レイヤ
  6
CONTINUOUS
 62
     2
100
AcDbLine
 10
137.15
 20
86.262549
 30
0.0
 11
137.0
 21
86.412549
 31
0.0
  0
LINE
  5
484
100
AcDbEntity
  8
基本作図レイヤ
  6
CONTINUOUS
 62
     2
100
AcDbLine
 10
138.0
 20
89.362549
 30
0.0
 11
138.0
 21
87.762549
 31
0.0
  0
ELLIPSE
  5
485
100
AcDbEntity
  8
基本作図レイヤ
  6
CONTINUOUS
 62
     2
100
AcDbEllipse
 10
137.5375
 20
88.562549
 30
0.0
 11
-0.0292527714817844
 21
-0.5811368486664265
 31
0.0
210
0.0
220
0.0
230
1.0
 40
0.794847
 41
1.5956797902843993
 42
1.6724025763941723
  0
LINE
  5
486
100
AcDbEntity
  8
基本作図レイヤ
  6
CONTINUOUS
 62
     2
100
AcDbLine
 10
137.15
 20
89.362549
 30
0.0
 11
137.0
 21
89.512549
 31
0.0
  0
LINE
  5
487
100
AcDbEntity
  8
基本作図レイヤ
  6
CONTINUOUS
 62
     2
100
AcDbLine
 10
137.15
 20
87.762549
 30
0.0
 11
137.0
 21
87.612549
 31
0.0
  0
LINE
  5
488
100
AcDbEntity
  8
基本作図レイヤ
  6
CONTINUOUS
 62
     2
100
AcDbLine
 10
137.0
 20
86.412549
 30
0.0
 11
137.0
 21
87.612549
 31
0.0
  0
LINE
  5
489
100
AcDbEntity
  8
基本作図レイヤ
  6
CONTINUOUS
 62
     2
100
AcDbLine
 10
137.0
 20
89.512549
 30
0.0
 11
137.0
 21
89.712549
 31
0.0
  0
LINE
  5
48A
100
AcDbEntity
  8
基本作図レイヤ
  6
CONTINUOUS
 62
     2
100
AcDbLine
 10
139.5
 20
86.762549
 30
0.0
 11
139.5
 21
97.262549
 31
0.0
  0
LINE
  5
48B
100
AcDbEntity
  8
基本作図レイヤ
  6
CONTINUOUS
 62
     2
100
AcDbLine
 10
137.0
 20
89.362549
 30
0.0
 11
138.0
 21
89.362549
 31
0.0
  0
LINE
  5
48C
100
AcDbEntity
  8
基本作図レイヤ
  6
CONTINUOUS
 62
     2
100
AcDbLine
 10
137.0
 20
87.762549
 30
0.0
 11
138.0
 21
87.762549
 31
0.0
  0
LINE
  5
48D
100
AcDbEntity
  8
基本作図レイヤ
  6
CONTINUOUS
 62
     2
100
AcDbLine
 10
139.0
 20
86.262549
 30
0.0
 11
137.0
 21
86.262549
 31
0.0
  0
ELLIPSE
  5
48E
100
AcDbEntity
  8
基本作図レイヤ
  6
CONTINUOUS
 62
     2
100
AcDbEllipse
 10
137.5375
 20
88.562549
 30
0.0
 11
-0.0000000000000001
 21
-0.6155271084150087
 31
0.0
210
0.0
220
0.0
230
1.0
 40
0.751389
 41
0.0
 42
6.2831853071796004
  0
ARC
  5
48F
100
AcDbEntity
  8
基本作図レイヤ
  6
CONTINUOUS
 62
     2
100
AcDbCircle
 10
134.5
 20
25.966025
 30
0.0
 40
60.0
100
AcDbArc
 50
92.433922
 51
92.459699
  0
LINE
  5
490
100
AcDbEntity
  8
基本作図レイヤ
  6
CONTINUOUS
 62
     2
100
AcDbLine
 10
132.0
 20
109.912549
 30
0.0
 11
132.0
 21
80.012549
 31
0.0
  0
LINE
  5
491
100
AcDbEntity
  8
基本作図レイヤ
  6
CONTINUOUS
 62
     2
100
AcDbLine
 10
129.5
 20
86.762549
 30
0.0
 11
130.0
 21
86.262549
 31
0.0
  0
LINE
  5
492
100
AcDbEntity
  8
基本作図レイヤ
  6
CONTINUOUS
 62
     2
100
AcDbLine
 10
131.85
 20
86.262549
 30
0.0
 11
132.0
 21
86.412549
 31
0.0
  0
LINE
  5
493
100
AcDbEntity
  8
基本作図レイヤ
  6
CONTINUOUS
 62
     2
100
AcDbLine
 10
131.0
 20
89.362549
 30
0.0
 11
131.0
 21
87.762549
 31
0.0
  0
ELLIPSE
  5
494
100
AcDbEntity
  8
基本作図レイヤ
  6
CONTINUOUS
 62
     2
100
AcDbEllipse
 10
131.4625
 20
88.562549
 30
0.0
 11
-0.0292527714817847
 21
0.5811368486664265
 31
0.0
210
0.0
220
0.0
230
1.0
 40
0.794847
 41
1.4691900771948887
 42
1.5459128633061758
  0
LINE
  5
495
100
AcDbEntity
  8
基本作図レイヤ
  6
CONTINUOUS
 62
     2
100
AcDbLine
 10
131.85
 20
89.362549
 30
0.0
 11
132.0
 21
89.512549
 31
0.0
  0
LINE
  5
496
100
AcDbEntity
  8
基本作図レイヤ
  6
CONTINUOUS
 62
     2
100
AcDbLine
 10
131.85
 20
87.762549
 30
0.0
 11
132.0
 21
87.612549
 31
0.0
  0
LINE
  5
497
100
AcDbEntity
  8
基本作図レイヤ
  6
CONTINUOUS
 62
     2
100
AcDbLine
 10
132.0
 20
86.412549
 30
0.0
 11
132.0
 21
87.612549
 31
0.0
  0
LINE
  5
498
100
AcDbEntity
  8
基本作図レイヤ
  6
CONTINUOUS
 62
     2
100
AcDbLine
 10
132.0
 20
89.512549
 30
0.0
 11
132.0
 21
89.712549
 31
0.0
  0
LINE
  5
499
100
AcDbEntity
  8
基本作図レイヤ
  6
CONTINUOUS
 62
     2
100
AcDbLine
 10
129.5
 20
86.762549
 30
0.0
 11
129.5
 21
97.262549
 31
0.0
  0
LINE
  5
49A
100
AcDbEntity
  8
基本作図レイヤ
  6
CONTINUOUS
 62
     2
100
AcDbLine
 10
130.0
 20
86.262549
 30
0.0
 11
132.0
 21
86.262549
 31
0.0
  0
LINE
  5
49B
100
AcDbEntity
  8
基本作図レイヤ
  6
CONTINUOUS
 62
     2
100
AcDbLine
 10
132.0
 20
87.762549
 30
0.0
 11
131.0
 21
87.762549
 31
0.0
  0
LINE
  5
49C
100
AcDbEntity
  8
基本作図レイヤ
  6
CONTINUOUS
 62
     2
100
AcDbLine
 10
132.0
 20
89.362549
 30
0.0
 11
131.0
 21
89.362549
 31
0.0
  0
ELLIPSE
  5
49D
100
AcDbEntity
  8
基本作図レイヤ
  6
CONTINUOUS
 62
     2
100
AcDbEllipse
 10
131.4625
 20
88.562549
 30
0.0
 11
-0.0000000000000001
 21
-0.6155271084150087
 31
0.0
210
0.0
220
0.0
230
1.0
 40
0.751389
 41
0.0
 42
6.2831853071796004
  0
LINE
  5
49E
100
AcDbEntity
  8
基本作図レイヤ
  6
CONTINUOUS
 62
     2
100
AcDbLine
 10
137.15
 20
92.362549
 30
0.0
 11
137.0
 21
92.212549
 31
0.0
  0
LINE
  5
49F
100
AcDbEntity
  8
基本作図レイヤ
  6
CONTINUOUS
 62
     2
100
AcDbLine
 10
138.0
 20
94.362549
 30
0.0
 11
138.0
 21
92.362549
 31
0.0
  0
LINE
  5
4A0
100
AcDbEntity
  8
基本作図レイヤ
  6
CONTINUOUS
 62
     2
100
AcDbLine
 10
137.15
 20
94.362549
 30
0.0
 11
137.0
 21
94.512549
 31
0.0
  0
LINE
  5
4A1
100
AcDbEntity
  8
基本作図レイヤ
  6
CONTINUOUS
 62
     2
100
AcDbLine
 10
137.0
 20
94.362549
 30
0.0
 11
138.0
 21
94.362549
 31
0.0
  0
LINE
  5
4A2
100
AcDbEntity
  8
基本作図レイヤ
  6
CONTINUOUS
 62
     2
100
AcDbLine
 10
137.0
 20
92.362549
 30
0.0
 11
138.0
 21
92.362549
 31
0.0
  0
LINE
  5
4A3
100
AcDbEntity
  8
基本作図レイヤ
  6
CONTINUOUS
 62
     2
100
AcDbLine
 10
131.85
 20
92.362549
 30
0.0
 11
132.0
 21
92.212549
 31
0.0
  0
LINE
  5
4A4
100
AcDbEntity
  8
基本作図レイヤ
  6
CONTINUOUS
 62
     2
100
AcDbLine
 10
131.0
 20
94.362549
 30
0.0
 11
131.0
 21
92.362549
 31
0.0
  0
LINE
  5
4A5
100
AcDbEntity
  8
基本作図レイヤ
  6
CONTINUOUS
 62
     2
100
AcDbLine
 10
131.85
 20
94.362549
 30
0.0
 11
132.0
 21
94.512549
 31
0.0
  0
LINE
  5
4A6
100
AcDbEntity
  8
基本作図レイヤ
  6
CONTINUOUS
 62
     2
100
AcDbLine
 10
132.0
 20
94.362549
 30
0.0
 11
131.0
 21
94.362549
 31
0.0
  0
LINE
  5
4A7
100
AcDbEntity
  8
基本作図レイヤ
  6
CONTINUOUS
 62
     2
100
AcDbLine
 10
132.0
 20
92.362549
 30
0.0
 11
131.0
 21
92.362549
 31
0.0
  0
LINE
  5
4A8
100
AcDbEntity
  8
基本作図レイヤ
  6
CONTINUOUS
 62
     2
100
AcDbLine
 10
140.875
 20
104.901705
 30
0.0
 11
140.875
 21
103.012549
 31
0.0
  0
LINE
  5
4A9
100
AcDbEntity
  8
基本作図レイヤ
  6
CONTINUOUS
 62
     2
100
AcDbLine
 10
140.25
 20
105.262549
 30
0.0
 11
140.875
 21
104.901705
 31
0.0
  0
LINE
  5
4AA
100
AcDbEntity
  8
基本作図レイヤ
  6
CONTINUOUS
 62
     2
100
AcDbLine
 10
139.0
 20
105.262549
 30
0.0
 11
140.25
 21
105.262549
 31
0.0
  0
LINE
  5
4AB
100
AcDbEntity
  8
基本作図レイヤ
  6
CONTINUOUS
 62
     2
100
AcDbLine
 10
128.75
 20
105.262549
 30
0.0
 11
128.125
 21
104.901705
 31
0.0
  0
LINE
  5
4AC
100
AcDbEntity
  8
基本作図レイヤ
  6
CONTINUOUS
 62
     2
100
AcDbLine
 10
128.75
 20
105.262549
 30
0.0
 11
130.0
 21
105.262549
 31
0.0
  0
LINE
  5
4AD
100
AcDbEntity
  8
基本作図レイヤ
  6
CONTINUOUS
 62
     2
100
AcDbLine
 10
128.125
 20
104.901705
 30
0.0
 11
128.125
 21
103.012549
 31
0.0
  0
LINE
  5
4AE
100
AcDbEntity
  8
基本作図レイヤ
  6
CONTINUOUS
 62
     2
100
AcDbLine
 10
139.0
 20
66.966025
 30
0.0
 11
139.0
 21
67.466025
 31
0.0
  0
LINE
  5
4AF
100
AcDbEntity
  8
基本作図レイヤ
  6
CONTINUOUS
 62
     2
100
AcDbLine
 10
136.5
 20
67.466025
 30
0.0
 11
139.0
 21
67.466025
 31
0.0
  0
LINE
  5
4B0
100
AcDbEntity
  8
基本作図レイヤ
  6
CONTINUOUS
 62
     2
100
AcDbLine
 10
136.5
 20
67.466025
 30
0.0
 11
136.5
 21
66.966025
 31
0.0
  0
ARC
  5
4B1
100
AcDbEntity
  8
基本作図レイヤ
  6
CONTINUOUS
 62
     2
100
AcDbCircle
 10
136.25
 20
66.966025
 30
0.0
 40
0.25
100
AcDbArc
 50
270.0
 51
0.0
  0
LINE
  5
4B2
100
AcDbEntity
  8
基本作図レイヤ
  6
CONTINUOUS
 62
     2
100
AcDbLine
 10
136.25
 20
66.716025
 30
0.0
 11
136.0
 21
66.716025
 31
0.0
  0
LINE
  5
4B3
100
AcDbEntity
  8
基本作図レイヤ
  6
CONTINUOUS
 62
     2
100
AcDbLine
 10
136.0
 20
66.716025
 30
0.0
 11
136.0
 21
65.466025
 31
0.0
  0
LINE
  5
4B4
100
AcDbEntity
  8
基本作図レイヤ
  6
CONTINUOUS
 62
     2
100
AcDbLine
 10
136.0
 20
65.466025
 30
0.0
 11
138.875
 21
65.466025
 31
0.0
  0
LINE
  5
4B5
100
AcDbEntity
  8
基本作図レイヤ
  6
CONTINUOUS
 62
     2
100
AcDbLine
 10
138.875
 20
65.466025
 30
0.0
 11
139.75
 21
65.466025
 31
0.0
  0
LINE
  5
4B6
100
AcDbEntity
  8
基本作図レイヤ
  6
CONTINUOUS
 62
     2
100
AcDbLine
 10
139.75
 20
65.466025
 30
0.0
 11
139.75
 21
66.716025
 31
0.0
  0
LINE
  5
4B7
100
AcDbEntity
  8
基本作図レイヤ
  6
CONTINUOUS
 62
     2
100
AcDbLine
 10
139.75
 20
66.716025
 30
0.0
 11
139.25
 21
66.716025
 31
0.0
  0
ARC
  5
4B8
100
AcDbEntity
  8
基本作図レイヤ
  6
CONTINUOUS
 62
     2
100
AcDbCircle
 10
139.25
 20
66.966025
 30
0.0
 40
0.25
100
AcDbArc
 50
180.0
 51
270.0
  0
ARC
  5
4B9
100
AcDbEntity
  8
基本作図レイヤ
  6
CONTINUOUS
 62
     2
100
AcDbCircle
 10
129.75
 20
66.966025
 30
0.0
 40
0.25
100
AcDbArc
 50
270.0
 51
0.0
  0
LINE
  5
4BA
100
AcDbEntity
  8
基本作図レイヤ
  6
CONTINUOUS
 62
     2
100
AcDbLine
 10
130.0
 20
67.466025
 30
0.0
 11
130.0
 21
66.966025
 31
0.0
  0
LINE
  5
4BB
100
AcDbEntity
  8
基本作図レイヤ
  6
CONTINUOUS
 62
     2
100
AcDbLine
 10
130.0
 20
67.466025
 30
0.0
 11
132.5
 21
67.466025
 31
0.0
  0
LINE
  5
4BC
100
AcDbEntity
  8
基本作図レイヤ
  6
CONTINUOUS
 62
     2
100
AcDbLine
 10
132.5
 20
66.966025
 30
0.0
 11
132.5
 21
67.466025
 31
0.0
  0
ARC
  5
4BD
100
AcDbEntity
  8
基本作図レイヤ
  6
CONTINUOUS
 62
     2
100
AcDbCircle
 10
132.75
 20
66.966025
 30
0.0
 40
0.25
100
AcDbArc
 50
180.0
 51
270.0
  0
LINE
  5
4BE
100
AcDbEntity
  8
基本作図レイヤ
  6
CONTINUOUS
 62
     2
100
AcDbLine
 10
133.0
 20
66.716025
 30
0.0
 11
132.75
 21
66.716025
 31
0.0
  0
LINE
  5
4BF
100
AcDbEntity
  8
基本作図レイヤ
  6
CONTINUOUS
 62
     2
100
AcDbLine
 10
133.0
 20
65.466025
 30
0.0
 11
133.0
 21
66.716025
 31
0.0
  0
LINE
  5
4C0
100
AcDbEntity
  8
基本作図レイヤ
  6
CONTINUOUS
 62
     2
100
AcDbLine
 10
129.25
 20
65.466025
 30
0.0
 11
133.0
 21
65.466025
 31
0.0
  0
LINE
  5
4C1
100
AcDbEntity
  8
基本作図レイヤ
  6
CONTINUOUS
 62
     2
100
AcDbLine
 10
129.25
 20
66.716025
 30
0.0
 11
129.25
 21
65.466025
 31
0.0
  0
LINE
  5
4C2
100
AcDbEntity
  8
基本作図レイヤ
  6
CONTINUOUS
 62
     2
100
AcDbLine
 10
129.75
 20
66.716025
 30
0.0
 11
129.25
 21
66.716025
 31
0.0
  0
CIRCLE
  5
4C3
100
AcDbEntity
  8
基本作図レイヤ
  6
CONTINUOUS
 62
     1
100
AcDbCircle
 10
90.0
 20
35.0
 30
0.0
 40
4.0
  0
TEXT
  5
4C4
100
AcDbEntity
  8
基本作図レイヤ
  6
CONTINUOUS
 62
     3
100
AcDbText
 10
87.971573
 20
32.171573
 30
0.0
 40
5.656854
  1
1
  7
EXCADSTD
 72
     5
 11
91.648528
 21
32.171573
 31
0.0
100
AcDbText
  0
POLYLINE
  5
4C5
100
AcDbEntity
  8
基本作図レイヤ
  6
CONTINUOUS
 62
     1
100
AcDb2dPolyline
 66
     1
 10
0.0
 20
0.0
 30
0.0
 70
   128
  0
VERTEX
  5
4C6
100
AcDbEntity
  8
基本作図レイヤ
  6
CONTINUOUS
 62
     1
100
AcDbVertex
100
AcDb2dVertex
 10
103.119567
 20
60.763576
 30
0.0
  0
VERTEX
  5
4C7
100
AcDbEntity
  8
基本作図レイヤ
  6
CONTINUOUS
 62
     1
100
AcDbVertex
100
AcDb2dVertex
 10
91.815124
 20
38.564453
 30
0.0
  0
SEQEND
  5
4C8
100
AcDbEntity
  8
基本作図レイヤ
  6
CONTINUOUS
 62
     1
  0
LINE
  5
4C9
100
AcDbEntity
  8
基本作図レイヤ
  6
CONTINUOUS
 62
     1
100
AcDbLine
 10
102.661674
 20
59.313461
 30
0.0
 11
103.119567
 21
60.763576
 31
0.0
  0
LINE
  5
4CA
100
AcDbEntity
  8
基本作図レイヤ
  6
CONTINUOUS
 62
     1
100
AcDbLine
 10
103.119567
 20
60.763576
 30
0.0
 11
102.216118
 21
59.540352
 31
0.0
  0
POLYLINE
  5
4CB
100
AcDbEntity
  8
基本作図レイヤ
  6
CONTINUOUS
 62
     1
100
AcDb2dPolyline
 66
     1
 10
0.0
 20
0.0
 30
0.0
 70
   128
  0
VERTEX
  5
4CC
100
AcDbEntity
  8
基本作図レイヤ
  6
CONTINUOUS
 62
     1
100
AcDbVertex
100
AcDb2dVertex
 10
133.0
 20
85.8
 30
0.0
  0
VERTEX
  5
4CD
100
AcDbEntity
  8
基本作図レイヤ
  6
CONTINUOUS
 62
     1
100
AcDbVertex
100
AcDb2dVertex
 10
102.179025
 20
38.354378
 30
0.0
  0
SEQEND
  5
4CE
100
AcDbEntity
  8
基本作図レイヤ
  6
CONTINUOUS
 62
     1
  0
LINE
  5
4CF
100
AcDbEntity
  8
基本作図レイヤ
  6
CONTINUOUS
 62
     1
100
AcDbLine
 10
132.392514
 20
84.405919
 30
0.0
 11
133.0
 21
85.8
 31
0.0
  0
LINE
  5
4D0
100
AcDbEntity
  8
基本作図レイヤ
  6
CONTINUOUS
 62
     1
100
AcDbLine
 10
133.0
 20
85.8
 30
0.0
 11
131.973217
 21
84.678297
 31
0.0
  0
CIRCLE
  5
4D1
100
AcDbEntity
  8
基本作図レイヤ
  6
CONTINUOUS
 62
     1
100
AcDbCircle
 10
100.0
 20
35.0
 30
0.0
 40
4.0
  0
TEXT
  5
4D2
100
AcDbEntity
  8
基本作図レイヤ
  6
CONTINUOUS
 62
     3
100
AcDbText
 10
97.971573
 20
32.171573
 30
0.0
 40
5.656854
  1
６
 41
0.84
  7
EXCADSTD
 72
     5
 11
102.497056
 21
32.171573
 31
0.0
100
AcDbText
  0
POLYLINE
  5
4D3
100
AcDbEntity
  8
基本作図レイヤ
  6
CONTINUOUS
 62
     1
100
AcDb2dPolyline
 66
     1
 10
0.0
 20
0.0
 30
0.0
 70
   128
  0
VERTEX
  5
4D4
100
AcDbEntity
  8
基本作図レイヤ
  6
CONTINUOUS
 62
     1
100
AcDbVertex
100
AcDb2dVertex
 10
127.85
 20
69.091303
 30
0.0
  0
VERTEX
  5
4D5
100
AcDbEntity
  8
基本作図レイヤ
  6
CONTINUOUS
 62
     1
100
AcDbVertex
100
AcDb2dVertex
 10
111.855429
 20
38.54364
 30
0.0
  0
SEQEND
  5
4D6
100
AcDbEntity
  8
基本作図レイヤ
  6
CONTINUOUS
 62
     1
  0
LINE
  5
4D7
100
AcDbEntity
  8
基本作図レイヤ
  6
CONTINUOUS
 62
     1
100
AcDbLine
 10
127.375692
 20
67.646474
 30
0.0
 11
127.85
 21
69.091303
 31
0.0
  0
LINE
  5
4D8
100
AcDbEntity
  8
基本作図レイヤ
  6
CONTINUOUS
 62
     1
100
AcDbLine
 10
127.85
 20
69.091303
 30
0.0
 11
126.932737
 21
67.878402
 31
0.0
  0
CIRCLE
  5
4D9
100
AcDbEntity
  8
基本作図レイヤ
  6
CONTINUOUS
 62
     1
100
AcDbCircle
 10
110.0
 20
35.0
 30
0.0
 40
4.0
  0
TEXT
  5
4DA
100
AcDbEntity
  8
基本作図レイヤ
  6
CONTINUOUS
 62
     3
100
AcDbText
 10
107.971573
 20
32.171573
 30
0.0
 40
5.656854
  1
４
 41
0.84
  7
EXCADSTD
 72
     5
 11
112.497056
 21
32.171573
 31
0.0
100
AcDbText
  0
POLYLINE
  5
4DB
100
AcDbEntity
  8
基本作図レイヤ
  6
CONTINUOUS
 62
     1
100
AcDb2dPolyline
 66
     1
 10
0.0
 20
0.0
 30
0.0
 70
   128
  0
VERTEX
  5
4DC
100
AcDbEntity
  8
基本作図レイヤ
  6
CONTINUOUS
 62
     1
100
AcDbVertex
100
AcDb2dVertex
 10
123.35
 20
54.966025
 30
0.0
  0
VERTEX
  5
4DD
100
AcDbEntity
  8
基本作図レイヤ
  6
CONTINUOUS
 62
     1
100
AcDbVertex
100
AcDb2dVertex
 10
120.661888
 20
38.944858
 30
0.0
  0
SEQEND
  5
4DE
100
AcDbEntity
  8
基本作図レイヤ
  6
CONTINUOUS
 62
     1
  0
LINE
  5
4DF
100
AcDbEntity
  8
基本作図レイヤ
  6
CONTINUOUS
 62
     1
100
AcDbLine
 10
123.348346
 20
53.445336
 30
0.0
 11
123.35
 21
54.966025
 31
0.0
  0
LINE
  5
4E0
100
AcDbEntity
  8
基本作図レイヤ
  6
CONTINUOUS
 62
     1
100
AcDbLine
 10
123.35
 20
54.966025
 30
0.0
 11
122.855238
 21
53.528072
 31
0.0
  0
CIRCLE
  5
4E1
100
AcDbEntity
  8
基本作図レイヤ
  6
CONTINUOUS
 62
     1
100
AcDbCircle
 10
120.0
 20
35.0
 30
0.0
 40
4.0
  0
TEXT
  5
4E2
100
AcDbEntity
  8
基本作図レイヤ
  6
CONTINUOUS
 62
     3
100
AcDbText
 10
117.971573
 20
32.171573
 30
0.0
 40
5.656854
  1
２２
 41
0.42
  7
EXCADSTD
 72
     5
 11
123.156645
 21
32.171573
 31
0.0
100
AcDbText
  0
POLYLINE
  5
4E3
100
AcDbEntity
  8
基本作図レイヤ
  6
CONTINUOUS
 62
     1
100
AcDb2dPolyline
 66
     1
 10
0.0
 20
0.0
 30
0.0
 70
   128
  0
VERTEX
  5
4E4
100
AcDbEntity
  8
基本作図レイヤ
  6
CONTINUOUS
 62
     1
100
AcDbVertex
100
AcDb2dVertex
 10
130.2
 20
46.966025
 30
0.0
  0
VERTEX
  5
4E5
100
AcDbEntity
  8
基本作図レイヤ
  6
CONTINUOUS
 62
     1
100
AcDbVertex
100
AcDb2dVertex
 10
130.066847
 20
38.999441
 30
0.0
  0
SEQEND
  5
4E6
100
AcDbEntity
  8
基本作図レイヤ
  6
CONTINUOUS
 62
     1
  0
LINE
  5
4E7
100
AcDbEntity
  8
基本作図レイヤ
  6
CONTINUOUS
 62
     1
100
AcDbLine
 10
130.424898
 20
45.462057
 30
0.0
 11
130.2
 21
46.966025
 31
0.0
  0
LINE
  5
4E8
100
AcDbEntity
  8
基本作図レイヤ
  6
CONTINUOUS
 62
     1
100
AcDbLine
 10
130.2
 20
46.966025
 30
0.0
 11
129.924967
 21
45.470413
 31
0.0
  0
CIRCLE
  5
4E9
100
AcDbEntity
  8
基本作図レイヤ
  6
CONTINUOUS
 62
     1
100
AcDbCircle
 10
130.0
 20
35.0
 30
0.0
 40
4.0
  0
TEXT
  5
4EA
100
AcDbEntity
  8
基本作図レイヤ
  6
CONTINUOUS
 62
     3
100
AcDbText
 10
127.971573
 20
32.171573
 30
0.0
 40
5.656854
  1
３
 41
0.84
  7
EXCADSTD
 72
     5
 11
132.497056
 21
32.171573
 31
0.0
100
AcDbText
  0
POLYLINE
  5
4EB
100
AcDbEntity
  8
基本作図レイヤ
  6
CONTINUOUS
 62
     1
100
AcDb2dPolyline
 66
     1
 10
0.0
 20
0.0
 30
0.0
 70
   128
  0
VERTEX
  5
4EC
100
AcDbEntity
  8
基本作図レイヤ
  6
CONTINUOUS
 62
     1
100
AcDbVertex
100
AcDb2dVertex
 10
130.0
 20
57.65
 30
0.0
  0
VERTEX
  5
4ED
100
AcDbEntity
  8
基本作図レイヤ
  6
CONTINUOUS
 62
     1
100
AcDbVertex
100
AcDb2dVertex
 10
138.384445
 20
38.659232
 30
0.0
  0
SEQEND
  5
4EE
100
AcDbEntity
  8
基本作図レイヤ
  6
CONTINUOUS
 62
     1
  0
LINE
  5
4EF
100
AcDbEntity
  8
基本作図レイヤ
  6
CONTINUOUS
 62
     1
100
AcDbLine
 10
130.834535
 20
56.37876
 30
0.0
 11
130.0
 21
57.65
 31
0.0
  0
LINE
  5
4F0
100
AcDbEntity
  8
基本作図レイヤ
  6
CONTINUOUS
 62
     1
100
AcDbLine
 10
130.0
 20
57.65
 30
0.0
 11
130.377131
 21
56.176816
 31
0.0
  0
CIRCLE
  5
4F1
100
AcDbEntity
  8
基本作図レイヤ
  6
CONTINUOUS
 62
     1
100
AcDbCircle
 10
140.0
 20
35.0
 30
0.0
 40
4.0
  0
TEXT
  5
4F2
100
AcDbEntity
  8
基本作図レイヤ
  6
CONTINUOUS
 62
     3
100
AcDbText
 10
137.971573
 20
32.171573
 30
0.0
 40
5.656854
  1
８
 41
0.84
  7
EXCADSTD
 72
     5
 11
142.497056
 21
32.171573
 31
0.0
100
AcDbText
  0
POLYLINE
  5
4F3
100
AcDbEntity
  8
基本作図レイヤ
  6
CONTINUOUS
 62
     1
100
AcDb2dPolyline
 66
     1
 10
0.0
 20
0.0
 30
0.0
 70
   128
  0
VERTEX
  5
4F4
100
AcDbEntity
  8
基本作図レイヤ
  6
CONTINUOUS
 62
     1
100
AcDbVertex
100
AcDb2dVertex
 10
133.05
 20
61.716025
 30
0.0
  0
VERTEX
  5
4F5
100
AcDbEntity
  8
基本作図レイヤ
  6
CONTINUOUS
 62
     1
100
AcDbVertex
100
AcDb2dVertex
 10
147.857099
 20
38.377569
 30
0.0
  0
SEQEND
  5
4F6
100
AcDbEntity
  8
基本作図レイヤ
  6
CONTINUOUS
 62
     1
  0
LINE
  5
4F7
100
AcDbEntity
  8
基本作図レイヤ
  6
CONTINUOUS
 62
     1
100
AcDbLine
 10
134.064686
 20
60.583368
 30
0.0
 11
133.05
 21
61.716025
 31
0.0
  0
LINE
  5
4F8
100
AcDbEntity
  8
基本作図レイヤ
  6
CONTINUOUS
 62
     1
100
AcDbLine
 10
133.05
 20
61.716025
 30
0.0
 11
133.64249
 21
60.315506
 31
0.0
  0
CIRCLE
  5
4F9
100
AcDbEntity
  8
基本作図レイヤ
  6
CONTINUOUS
 62
     1
100
AcDbCircle
 10
150.0
 20
35.0
 30
0.0
 40
4.0
  0
TEXT
  5
4FA
100
AcDbEntity
  8
基本作図レイヤ
  6
CONTINUOUS
 62
     3
100
AcDbText
 10
147.971573
 20
32.171573
 30
0.0
 40
5.656854
  1
５
 41
0.84
  7
EXCADSTD
 72
     5
 11
152.497056
 21
32.171573
 31
0.0
100
AcDbText
  0
POLYLINE
  5
4FB
100
AcDbEntity
  8
基本作図レイヤ
  6
CONTINUOUS
 62
     1
100
AcDb2dPolyline
 66
     1
 10
0.0
 20
0.0
 30
0.0
 70
   128
  0
VERTEX
  5
4FC
100
AcDbEntity
  8
基本作図レイヤ
  6
CONTINUOUS
 62
     1
100
AcDbVertex
100
AcDb2dVertex
 10
142.3
 20
57.216025
 30
0.0
  0
VERTEX
  5
4FD
100
AcDbEntity
  8
基本作図レイヤ
  6
CONTINUOUS
 62
     1
100
AcDbVertex
100
AcDb2dVertex
 10
157.507478
 20
38.128471
 30
0.0
  0
SEQEND
  5
4FE
100
AcDbEntity
  8
基本作図レイヤ
  6
CONTINUOUS
 62
     1
  0
LINE
  5
4FF
100
AcDbEntity
  8
基本作図レイヤ
  6
CONTINUOUS
 62
     1
100
AcDbLine
 10
143.430225
 20
56.198631
 30
0.0
 11
142.3
 21
57.216025
 31
0.0
  0
LINE
  5
500
100
AcDbEntity
  8
基本作図レイヤ
  6
CONTINUOUS
 62
     1
100
AcDbLine
 10
142.3
 20
57.216025
 30
0.0
 11
143.039166
 21
55.887066
 31
0.0
  0
CIRCLE
  5
501
100
AcDbEntity
  8
基本作図レイヤ
  6
CONTINUOUS
 62
     1
100
AcDbCircle
 10
160.0
 20
35.0
 30
0.0
 40
4.0
  0
TEXT
  5
502
100
AcDbEntity
  8
基本作図レイヤ
  6
CONTINUOUS
 62
     3
100
AcDbText
 10
157.971573
 20
32.171573
 30
0.0
 40
5.656854
  1
２１
 41
0.42
  7
EXCADSTD
 72
     5
 11
163.156645
 21
32.171573
 31
0.0
100
AcDbText
  0
POLYLINE
  5
503
100
AcDbEntity
  8
基本作図レイヤ
  6
CONTINUOUS
 62
     1
100
AcDb2dPolyline
 66
     1
 10
0.0
 20
0.0
 30
0.0
 70
   128
  0
VERTEX
  5
504
100
AcDbEntity
  8
基本作図レイヤ
  6
CONTINUOUS
 62
     1
100
AcDbVertex
100
AcDb2dVertex
 10
137.7
 20
65.466025
 30
0.0
  0
VERTEX
  5
505
100
AcDbEntity
  8
基本作図レイヤ
  6
CONTINUOUS
 62
     1
100
AcDbVertex
100
AcDb2dVertex
 10
167.09017
 20
37.744611
 30
0.0
  0
SEQEND
  5
506
100
AcDbEntity
  8
基本作図レイヤ
  6
CONTINUOUS
 62
     1
  0
LINE
  5
507
100
AcDbEntity
  8
基本作図レイヤ
  6
CONTINUOUS
 62
     1
100
AcDbLine
 10
138.962724
 20
64.618661
 30
0.0
 11
137.7
 21
65.466025
 31
0.0
  0
LINE
  5
508
100
AcDbEntity
  8
基本作図レイヤ
  6
CONTINUOUS
 62
     1
100
AcDbLine
 10
137.7
 20
65.466025
 30
0.0
 11
138.619648
 21
64.254932
 31
0.0
  0
CIRCLE
  5
509
100
AcDbEntity
  8
基本作図レイヤ
  6
CONTINUOUS
 62
     1
100
AcDbCircle
 10
170.0
 20
35.0
 30
0.0
 40
4.0
  0
TEXT
  5
50A
100
AcDbEntity
  8
基本作図レイヤ
  6
CONTINUOUS
 62
     3
100
AcDbText
 10
167.971573
 20
32.171573
 30
0.0
 40
5.656854
  1
７
 41
0.84
  7
EXCADSTD
 72
     5
 11
172.497056
 21
32.171573
 31
0.0
100
AcDbText
  0
POLYLINE
  5
50B
100
AcDbEntity
  8
基本作図レイヤ
  6
CONTINUOUS
 62
     1
100
AcDb2dPolyline
 66
     1
 10
0.0
 20
0.0
 30
0.0
 70
   128
  0
VERTEX
  5
50C
100
AcDbEntity
  8
基本作図レイヤ
  6
CONTINUOUS
 62
     1
100
AcDbVertex
100
AcDb2dVertex
 10
142.75
 20
65.95
 30
0.0
  0
VERTEX
  5
50D
100
AcDbEntity
  8
基本作図レイヤ
  6
CONTINUOUS
 62
     1
100
AcDbVertex
100
AcDb2dVertex
 10
176.923395
 20
37.556267
 30
0.0
  0
SEQEND
  5
50E
100
AcDbEntity
  8
基本作図レイヤ
  6
CONTINUOUS
 62
     1
  0
LINE
  5
50F
100
AcDbEntity
  8
基本作図レイヤ
  6
CONTINUOUS
 62
     1
100
AcDbLine
 10
144.063494
 20
65.183688
 30
0.0
 11
142.75
 21
65.95
 31
0.0
  0
LINE
  5
510
100
AcDbEntity
  8
基本作図レイヤ
  6
CONTINUOUS
 62
     1
100
AcDbLine
 10
142.75
 20
65.95
 30
0.0
 11
143.74396
 21
64.799112
 31
0.0
  0
CIRCLE
  5
511
100
AcDbEntity
  8
基本作図レイヤ
  6
CONTINUOUS
 62
     1
100
AcDbCircle
 10
180.0
 20
35.0
 30
0.0
 40
4.0
  0
TEXT
  5
512
100
AcDbEntity
  8
基本作図レイヤ
  6
CONTINUOUS
 62
     3
100
AcDbText
 10
177.971573
 20
32.171573
 30
0.0
 40
5.656854
  1
２３
 41
0.42
  7
EXCADSTD
 72
     5
 11
183.156645
 21
32.171573
 31
0.0
100
AcDbText
  0
POLYLINE
  5
513
100
AcDbEntity
  8
基本作図レイヤ
  6
CONTINUOUS
 62
     1
100
AcDb2dPolyline
 66
     1
 10
0.0
 20
0.0
 30
0.0
 70
   128
  0
VERTEX
  5
514
100
AcDbEntity
  8
基本作図レイヤ
  6
CONTINUOUS
 62
     1
100
AcDbVertex
100
AcDb2dVertex
 10
137.0
 20
81.9
 30
0.0
  0
VERTEX
  5
515
100
AcDbEntity
  8
基本作図レイヤ
  6
CONTINUOUS
 62
     1
100
AcDbVertex
100
AcDb2dVertex
 10
187.004445
 20
37.650783
 30
0.0
  0
SEQEND
  5
516
100
AcDbEntity
  8
基本作図レイヤ
  6
CONTINUOUS
 62
     1
  0
LINE
  5
517
100
AcDbEntity
  8
基本作図レイヤ
  6
CONTINUOUS
 62
     1
100
AcDbLine
 10
138.289007
 20
81.093178
 30
0.0
 11
137.0
 21
81.9
 31
0.0
  0
LINE
  5
518
100
AcDbEntity
  8
基本作図レイヤ
  6
CONTINUOUS
 62
     1
100
AcDbLine
 10
137.0
 20
81.9
 30
0.0
 11
137.957659
 21
80.718734
 31
0.0
  0
CIRCLE
  5
519
100
AcDbEntity
  8
基本作図レイヤ
  6
CONTINUOUS
 62
     1
100
AcDbCircle
 10
190.0
 20
35.0
 30
0.0
 40
4.0
  0
TEXT
  5
51A
100
AcDbEntity
  8
基本作図レイヤ
  6
CONTINUOUS
 62
     3
100
AcDbText
 10
187.971573
 20
32.171573
 30
0.0
 40
5.656854
  1
１６
 41
0.42
  7
EXCADSTD
 72
     5
 11
193.156645
 21
32.171573
 31
0.0
100
AcDbText
  0
POLYLINE
  5
51B
100
AcDbEntity
  8
基本作図レイヤ
  6
CONTINUOUS
 62
     1
100
AcDb2dPolyline
 66
     1
 10
0.0
 20
0.0
 30
0.0
 70
   128
  0
VERTEX
  5
51C
100
AcDbEntity
  8
基本作図レイヤ
  6
CONTINUOUS
 62
     1
100
AcDbVertex
100
AcDb2dVertex
 10
131.0
 20
88.553764
 30
0.0
  0
VERTEX
  5
51D
100
AcDbEntity
  8
基本作図レイヤ
  6
CONTINUOUS
 62
     1
100
AcDbVertex
100
AcDb2dVertex
 10
73.977851
 20
94.579637
 30
0.0
  0
SEQEND
  5
51E
100
AcDbEntity
  8
基本作図レイヤ
  6
CONTINUOUS
 62
     1
  0
LINE
  5
51F
100
AcDbEntity
  8
基本作図レイヤ
  6
CONTINUOUS
 62
     1
100
AcDbLine
 10
129.482033
 20
88.462785
 30
0.0
 11
131.0
 21
88.553764
 31
0.0
  0
LINE
  5
520
100
AcDbEntity
  8
基本作図レイヤ
  6
CONTINUOUS
 62
     1
100
AcDbLine
 10
131.0
 20
88.553764
 30
0.0
 11
129.534579
 21
88.960016
 31
0.0
  0
CIRCLE
  5
521
100
AcDbEntity
  8
基本作図レイヤ
  6
CONTINUOUS
 62
     1
100
AcDbCircle
 10
70.0
 20
95.0
 30
0.0
 40
4.0
  0
TEXT
  5
522
100
AcDbEntity
  8
基本作図レイヤ
  6
CONTINUOUS
 62
     3
100
AcDbText
 10
67.971573
 20
92.171573
 30
0.0
 40
5.656854
  1
１１
 41
0.42
  7
EXCADSTD
 72
     5
 11
73.156645
 21
92.171573
 31
0.0
100
AcDbText
  0
POLYLINE
  5
523
100
AcDbEntity
  8
基本作図レイヤ
  6
CONTINUOUS
 62
     1
100
AcDb2dPolyline
 66
     1
 10
0.0
 20
0.0
 30
0.0
 70
   128
  0
VERTEX
  5
524
100
AcDbEntity
  8
基本作図レイヤ
  6
CONTINUOUS
 62
     1
100
AcDbVertex
100
AcDb2dVertex
 10
131.279448
 20
97.812535
 30
0.0
  0
VERTEX
  5
525
100
AcDbEntity
  8
基本作図レイヤ
  6
CONTINUOUS
 62
     1
100
AcDbVertex
100
AcDb2dVertex
 10
73.977851
 20
94.579637
 30
0.0
  0
SEQEND
  5
526
100
AcDbEntity
  8
基本作図レイヤ
  6
CONTINUOUS
 62
     1
  0
LINE
  5
527
100
AcDbEntity
  8
基本作図レイヤ
  6
CONTINUOUS
 62
     1
100
AcDbLine
 10
129.795912
 20
97.478438
 30
0.0
 11
131.279448
 21
97.812535
 31
0.0
  0
LINE
  5
528
100
AcDbEntity
  8
基本作図レイヤ
  6
CONTINUOUS
 62
     1
100
AcDbLine
 10
131.279448
 20
97.812535
 30
0.0
 11
129.767747
 21
97.977644
 31
0.0
  0
POLYLINE
  5
529
100
AcDbEntity
  8
基本作図レイヤ
  6
CONTINUOUS
 62
     1
100
AcDb2dPolyline
 66
     1
 10
0.0
 20
0.0
 30
0.0
 70
   128
  0
VERTEX
  5
52A
100
AcDbEntity
  8
基本作図レイヤ
  6
CONTINUOUS
 62
     1
100
AcDbVertex
100
AcDb2dVertex
 10
130.5
 20
98.512549
 30
0.0
  0
VERTEX
  5
52B
100
AcDbEntity
  8
基本作図レイヤ
  6
CONTINUOUS
 62
     1
100
AcDbVertex
100
AcDb2dVertex
 10
73.9772
 20
104.573523
 30
0.0
  0
SEQEND
  5
52C
100
AcDbEntity
  8
基本作図レイヤ
  6
CONTINUOUS
 62
     1
  0
LINE
  5
52D
100
AcDbEntity
  8
基本作図レイヤ
  6
CONTINUOUS
 62
     1
100
AcDbLine
 10
128.981895
 20
98.423903
 30
0.0
 11
130.5
 21
98.512549
 31
0.0
  0
LINE
  5
52E
100
AcDbEntity
  8
基本作図レイヤ
  6
CONTINUOUS
 62
     1
100
AcDbLine
 10
130.5
 20
98.512549
 30
0.0
 11
129.035205
 21
98.921053
 31
0.0
  0
CIRCLE
  5
52F
100
AcDbEntity
  8
基本作図レイヤ
  6
CONTINUOUS
 62
     1
100
AcDbCircle
 10
70.0
 20
105.0
 30
0.0
 40
4.0
  0
TEXT
  5
530
100
AcDbEntity
  8
基本作図レイヤ
  6
CONTINUOUS
 62
     3
100
AcDbText
 10
67.971573
 20
102.171573
 30
0.0
 40
5.656854
  1
３１
 41
0.42
  7
EXCADSTD
 72
     5
 11
73.156645
 21
102.171573
 31
0.0
100
AcDbText
  0
POLYLINE
  5
531
100
AcDbEntity
  8
基本作図レイヤ
  6
CONTINUOUS
 62
     1
100
AcDb2dPolyline
 66
     1
 10
0.0
 20
0.0
 30
0.0
 70
   128
  0
VERTEX
  5
532
100
AcDbEntity
  8
基本作図レイヤ
  6
CONTINUOUS
 62
     1
100
AcDbVertex
100
AcDb2dVertex
 10
130.823579
 20
99.211263
 30
0.0
  0
VERTEX
  5
533
100
AcDbEntity
  8
基本作図レイヤ
  6
CONTINUOUS
 62
     1
100
AcDbVertex
100
AcDb2dVertex
 10
73.871683
 20
113.994979
 30
0.0
  0
SEQEND
  5
534
100
AcDbEntity
  8
基本作図レイヤ
  6
CONTINUOUS
 62
     1
  0
LINE
  5
535
100
AcDbEntity
  8
基本作図レイヤ
  6
CONTINUOUS
 62
     1
100
AcDbLine
 10
129.308884
 20
99.346166
 30
0.0
 11
130.823579
 21
99.211263
 31
0.0
  0
LINE
  5
536
100
AcDbEntity
  8
基本作図レイヤ
  6
CONTINUOUS
 62
     1
100
AcDbLine
 10
130.823579
 20
99.211263
 30
0.0
 11
129.434511
 21
99.830126
 31
0.0
  0
CIRCLE
  5
537
100
AcDbEntity
  8
基本作図レイヤ
  6
CONTINUOUS
 62
     1
100
AcDbCircle
 10
70.0
 20
115.0
 30
0.0
 40
4.0
  0
TEXT
  5
538
100
AcDbEntity
  8
基本作図レイヤ
  6
CONTINUOUS
 62
     3
100
AcDbText
 10
67.971573
 20
112.171573
 30
0.0
 40
5.656854
  1
２８
 41
0.42
  7
EXCADSTD
 72
     5
 11
73.156645
 21
112.171573
 31
0.0
100
AcDbText
  0
POLYLINE
  5
539
100
AcDbEntity
  8
基本作図レイヤ
  6
CONTINUOUS
 62
     1
100
AcDb2dPolyline
 66
     1
 10
0.0
 20
0.0
 30
0.0
 70
   128
  0
VERTEX
  5
53A
100
AcDbEntity
  8
基本作図レイヤ
  6
CONTINUOUS
 62
     1
100
AcDbVertex
100
AcDb2dVertex
 10
129.025
 20
107.34397
 30
0.0
  0
VERTEX
  5
53B
100
AcDbEntity
  8
基本作図レイヤ
  6
CONTINUOUS
 62
     1
100
AcDbVertex
100
AcDb2dVertex
 10
73.832224
 20
123.853675
 30
0.0
  0
SEQEND
  5
53C
100
AcDbEntity
  8
基本作図レイヤ
  6
CONTINUOUS
 62
     1
  0
LINE
  5
53D
100
AcDbEntity
  8
基本作図レイヤ
  6
CONTINUOUS
 62
     1
100
AcDbLine
 10
127.516271
 20
107.534329
 30
0.0
 11
129.025
 21
107.34397
 31
0.0
  0
LINE
  5
53E
100
AcDbEntity
  8
基本作図レイヤ
  6
CONTINUOUS
 62
     1
100
AcDbLine
 10
129.025
 20
107.34397
 30
0.0
 11
127.659561
 21
108.013356
 31
0.0
  0
CIRCLE
  5
53F
100
AcDbEntity
  8
基本作図レイヤ
  6
CONTINUOUS
 62
     1
100
AcDbCircle
 10
70.0
 20
125.0
 30
0.0
 40
4.0
  0
TEXT
  5
540
100
AcDbEntity
  8
基本作図レイヤ
  6
CONTINUOUS
 62
     3
100
AcDbText
 10
67.971573
 20
122.171573
 30
0.0
 40
5.656854
  1
３２
 41
0.42
  7
EXCADSTD
 72
     5
 11
73.156645
 21
122.171573
 31
0.0
100
AcDbText
  0
POLYLINE
  5
541
100
AcDbEntity
  8
基本作図レイヤ
  6
CONTINUOUS
 62
     1
100
AcDb2dPolyline
 66
     1
 10
0.0
 20
0.0
 30
0.0
 70
   128
  0
VERTEX
  5
542
100
AcDbEntity
  8
基本作図レイヤ
  6
CONTINUOUS
 62
     1
100
AcDbVertex
100
AcDb2dVertex
 10
90.75
 20
123.9
 30
0.0
  0
VERTEX
  5
543
100
AcDbEntity
  8
基本作図レイヤ
  6
CONTINUOUS
 62
     1
100
AcDbVertex
100
AcDb2dVertex
 10
73.527056
 20
133.113237
 30
0.0
  0
SEQEND
  5
544
100
AcDbEntity
  8
基本作図レイヤ
  6
CONTINUOUS
 62
     1
  0
LINE
  5
545
100
AcDbEntity
  8
基本作図レイヤ
  6
CONTINUOUS
 62
     1
100
AcDbLine
 10
89.309431
 20
124.387095
 30
0.0
 11
90.75
 21
123.9
 31
0.0
  0
LINE
  5
546
100
AcDbEntity
  8
基本作図レイヤ
  6
CONTINUOUS
 62
     1
100
AcDbLine
 10
90.75
 20
123.9
 30
0.0
 11
89.545277
 21
124.827977
 31
0.0
  0
CIRCLE
  5
547
100
AcDbEntity
  8
基本作図レイヤ
  6
CONTINUOUS
 62
     1
100
AcDbCircle
 10
70.0
 20
135.0
 30
0.0
 40
4.0
  0
TEXT
  5
548
100
AcDbEntity
  8
基本作図レイヤ
  6
CONTINUOUS
 62
     3
100
AcDbText
 10
67.971573
 20
132.171573
 30
0.0
 40
5.656854
  1
２７
 41
0.42
  7
EXCADSTD
 72
     5
 11
73.156645
 21
132.171573
 31
0.0
100
AcDbText
  0
POLYLINE
  5
549
100
AcDbEntity
  8
基本作図レイヤ
  6
CONTINUOUS
 62
     1
100
AcDb2dPolyline
 66
     1
 10
0.0
 20
0.0
 30
0.0
 70
   128
  0
VERTEX
  5
54A
100
AcDbEntity
  8
基本作図レイヤ
  6
CONTINUOUS
 62
     1
100
AcDbVertex
100
AcDb2dVertex
 10
125.0
 20
112.9
 30
0.0
  0
VERTEX
  5
54B
100
AcDbEntity
  8
基本作図レイヤ
  6
CONTINUOUS
 62
     1
100
AcDbVertex
100
AcDb2dVertex
 10
73.45466
 20
142.983735
 30
0.0
  0
SEQEND
  5
54C
100
AcDbEntity
  8
基本作図レイヤ
  6
CONTINUOUS
 62
     1
  0
LINE
  5
54D
100
AcDbEntity
  8
基本作図レイヤ
  6
CONTINUOUS
 62
     1
100
AcDbLine
 10
123.578486
 20
113.440183
 30
0.0
 11
125.0
 21
112.9
 31
0.0
  0
LINE
  5
54E
100
AcDbEntity
  8
基本作図レイヤ
  6
CONTINUOUS
 62
     1
100
AcDbLine
 10
125.0
 20
112.9
 30
0.0
 11
123.830519
 21
113.872016
 31
0.0
  0
CIRCLE
  5
54F
100
AcDbEntity
  8
基本作図レイヤ
  6
CONTINUOUS
 62
     1
100
AcDbCircle
 10
70.0
 20
145.0
 30
0.0
 40
4.0
  0
TEXT
  5
550
100
AcDbEntity
  8
基本作図レイヤ
  6
CONTINUOUS
 62
     3
100
AcDbText
 10
67.971573
 20
142.171573
 30
0.0
 40
5.656854
  1
１０
 41
0.42
  7
EXCADSTD
 72
     5
 11
73.156645
 21
142.171573
 31
0.0
100
AcDbText
  0
POLYLINE
  5
551
100
AcDbEntity
  8
基本作図レイヤ
  6
CONTINUOUS
 62
     1
100
AcDb2dPolyline
 66
     1
 10
0.0
 20
0.0
 30
0.0
 70
   128
  0
VERTEX
  5
552
100
AcDbEntity
  8
基本作図レイヤ
  6
CONTINUOUS
 62
     1
100
AcDbVertex
100
AcDb2dVertex
 10
126.991846
 20
117.762549
 30
0.0
  0
VERTEX
  5
553
100
AcDbEntity
  8
基本作図レイヤ
  6
CONTINUOUS
 62
     1
100
AcDbVertex
100
AcDb2dVertex
 10
73.34859
 20
152.812091
 30
0.0
  0
SEQEND
  5
554
100
AcDbEntity
  8
基本作図レイヤ
  6
CONTINUOUS
 62
     1
  0
LINE
  5
555
100
AcDbEntity
  8
基本作図レイヤ
  6
CONTINUOUS
 62
     1
100
AcDbLine
 10
125.59938
 20
118.373728
 30
0.0
 11
126.991846
 21
117.762549
 31
0.0
  0
LINE
  5
556
100
AcDbEntity
  8
基本作図レイヤ
  6
CONTINUOUS
 62
     1
100
AcDbLine
 10
126.991846
 20
117.762549
 30
0.0
 11
125.872869
 21
118.792302
 31
0.0
  0
CIRCLE
  5
557
100
AcDbEntity
  8
基本作図レイヤ
  6
CONTINUOUS
 62
     1
100
AcDbCircle
 10
70.0
 20
155.0
 30
0.0
 40
4.0
  0
TEXT
  5
558
100
AcDbEntity
  8
基本作図レイヤ
  6
CONTINUOUS
 62
     3
100
AcDbText
 10
67.971573
 20
152.171573
 30
0.0
 40
5.656854
  1
１４
 41
0.42
  7
EXCADSTD
 72
     5
 11
73.156645
 21
152.171573
 31
0.0
100
AcDbText
  0
POLYLINE
  5
559
100
AcDbEntity
  8
基本作図レイヤ
  6
CONTINUOUS
 62
     1
100
AcDb2dPolyline
 66
     1
 10
0.0
 20
0.0
 30
0.0
 70
   128
  0
VERTEX
  5
55A
100
AcDbEntity
  8
基本作図レイヤ
  6
CONTINUOUS
 62
     1
100
AcDbVertex
100
AcDb2dVertex
 10
129.025
 20
124.049633
 30
0.0
  0
VERTEX
  5
55B
100
AcDbEntity
  8
基本作図レイヤ
  6
CONTINUOUS
 62
     1
100
AcDbVertex
100
AcDb2dVertex
 10
73.286503
 20
162.71989
 30
0.0
  0
SEQEND
  5
55C
100
AcDbEntity
  8
基本作図レイヤ
  6
CONTINUOUS
 62
     1
  0
LINE
  5
55D
100
AcDbEntity
  8
基本作図レイヤ
  6
CONTINUOUS
 62
     1
100
AcDbLine
 10
127.650055
 20
124.699268
 30
0.0
 11
129.025
 21
124.049633
 31
0.0
  0
LINE
  5
55E
100
AcDbEntity
  8
基本作図レイヤ
  6
CONTINUOUS
 62
     1
100
AcDbLine
 10
129.025
 20
124.049633
 30
0.0
 11
127.935068
 21
125.110081
 31
0.0
  0
CIRCLE
  5
55F
100
AcDbEntity
  8
基本作図レイヤ
  6
CONTINUOUS
 62
     1
100
AcDbCircle
 10
70.0
 20
165.0
 30
0.0
 40
4.0
  0
TEXT
  5
560
100
AcDbEntity
  8
基本作図レイヤ
  6
CONTINUOUS
 62
     3
100
AcDbText
 10
67.971573
 20
162.171573
 30
0.0
 40
5.656854
  1
１５
 41
0.42
  7
EXCADSTD
 72
     5
 11
73.156645
 21
162.171573
 31
0.0
100
AcDbText
  0
POLYLINE
  5
561
100
AcDbEntity
  8
基本作図レイヤ
  6
CONTINUOUS
 62
     1
100
AcDb2dPolyline
 66
     1
 10
0.0
 20
0.0
 30
0.0
 70
   128
  0
VERTEX
  5
562
100
AcDbEntity
  8
基本作図レイヤ
  6
CONTINUOUS
 62
     1
100
AcDbVertex
100
AcDb2dVertex
 10
120.5
 20
149.15
 30
0.0
  0
VERTEX
  5
563
100
AcDbEntity
  8
基本作図レイヤ
  6
CONTINUOUS
 62
     1
100
AcDbVertex
100
AcDb2dVertex
 10
73.560627
 20
173.177382
 30
0.0
  0
SEQEND
  5
564
100
AcDbEntity
  8
基本作図レイヤ
  6
CONTINUOUS
 62
     1
  0
LINE
  5
565
100
AcDbEntity
  8
基本作図レイヤ
  6
CONTINUOUS
 62
     1
100
AcDbLine
 10
119.050851
 20
149.610943
 30
0.0
 11
120.5
 21
149.15
 31
0.0
  0
LINE
  5
566
100
AcDbEntity
  8
基本作図レイヤ
  6
CONTINUOUS
 62
     1
100
AcDbLine
 10
120.5
 20
149.15
 30
0.0
 11
119.278679
 21
150.056021
 31
0.0
  0
CIRCLE
  5
567
100
AcDbEntity
  8
基本作図レイヤ
  6
CONTINUOUS
 62
     1
100
AcDbCircle
 10
70.0
 20
175.0
 30
0.0
 40
4.0
  0
TEXT
  5
568
100
AcDbEntity
  8
基本作図レイヤ
  6
CONTINUOUS
 62
     3
100
AcDbText
 10
67.971573
 20
172.171573
 30
0.0
 40
5.656854
  1
１７
 41
0.42
  7
EXCADSTD
 72
     5
 11
73.156645
 21
172.171573
 31
0.0
100
AcDbText
  0
CIRCLE
  5
569
100
AcDbEntity
  8
基本作図レイヤ
  6
CONTINUOUS
 62
     1
100
AcDbCircle
 10
215.0
 20
120.0
 30
0.0
 40
4.0
  0
TEXT
  5
56A
100
AcDbEntity
  8
基本作図レイヤ
  6
CONTINUOUS
 62
     3
100
AcDbText
 10
212.971573
 20
117.171573
 30
0.0
 40
5.656854
  1
３５
 41
0.42
  7
EXCADSTD
 72
     5
 11
218.156645
 21
117.171573
 31
0.0
100
AcDbText
  0
CIRCLE
  5
56B
100
AcDbEntity
  8
基本作図レイヤ
  6
CONTINUOUS
 62
     1
100
AcDbCircle
 10
225.0
 20
120.0
 30
0.0
 40
4.0
  0
TEXT
  5
56C
100
AcDbEntity
  8
基本作図レイヤ
  6
CONTINUOUS
 62
     3
100
AcDbText
 10
222.971573
 20
117.171573
 30
0.0
 40
5.656854
  1
３６
 41
0.42
  7
EXCADSTD
 72
     5
 11
228.156645
 21
117.171573
 31
0.0
100
AcDbText
  0
CIRCLE
  5
56D
100
AcDbEntity
  8
基本作図レイヤ
  6
CONTINUOUS
 62
     1
100
AcDbCircle
 10
235.0
 20
120.0
 30
0.0
 40
4.0
  0
TEXT
  5
56E
100
AcDbEntity
  8
基本作図レイヤ
  6
CONTINUOUS
 62
     3
100
AcDbText
 10
232.971573
 20
117.171573
 30
0.0
 40
5.656854
  1
３８
 41
0.42
  7
EXCADSTD
 72
     5
 11
238.156645
 21
117.171573
 31
0.0
100
AcDbText
  0
POLYLINE
  5
56F
100
AcDbEntity
  8
基本作図レイヤ
  6
CONTINUOUS
 62
     1
100
AcDb2dPolyline
 66
     1
 10
0.0
 20
0.0
 30
0.0
 70
   128
  0
VERTEX
  5
570
100
AcDbEntity
  8
基本作図レイヤ
  6
CONTINUOUS
 62
     1
100
AcDbVertex
100
AcDb2dVertex
 10
185.25
 20
72.966025
 30
0.0
  0
VERTEX
  5
571
100
AcDbEntity
  8
基本作図レイヤ
  6
CONTINUOUS
 62
     1
100
AcDbVertex
100
AcDb2dVertex
 10
198.551458
 20
38.728502
 30
0.0
  0
SEQEND
  5
572
100
AcDbEntity
  8
基本作図レイヤ
  6
CONTINUOUS
 62
     1
  0
LINE
  5
573
100
AcDbEntity
  8
基本作図レイヤ
  6
CONTINUOUS
 62
     1
100
AcDbLine
 10
186.026235
 20
71.658371
 30
0.0
 11
185.25
 21
72.966025
 31
0.0
  0
LINE
  5
574
100
AcDbEntity
  8
基本作図レイヤ
  6
CONTINUOUS
 62
     1
100
AcDbLine
 10
185.25
 20
72.966025
 30
0.0
 11
185.560172
 21
71.477303
 31
0.0
  0
CIRCLE
  5
575
100
AcDbEntity
  8
基本作図レイヤ
  6
CONTINUOUS
 62
     1
100
AcDbCircle
 10
200.0
 20
35.0
 30
0.0
 40
4.0
  0
TEXT
  5
576
100
AcDbEntity
  8
基本作図レイヤ
  6
CONTINUOUS
 62
     3
100
AcDbText
 10
197.971573
 20
32.171573
 30
0.0
 40
5.656854
  1
３９
 41
0.42
  7
EXCADSTD
 72
     5
 11
203.156645
 21
32.171573
 31
0.0
100
AcDbText
  0
CIRCLE
  5
577
100
AcDbEntity
  8
基本作図レイヤ
  6
CONTINUOUS
 62
     1
100
AcDbCircle
 10
210.0
 20
35.0
 30
0.0
 40
4.0
  0
TEXT
  5
578
100
AcDbEntity
  8
基本作図レイヤ
  6
CONTINUOUS
 62
     3
100
AcDbText
 10
207.971573
 20
32.171573
 30
0.0
 40
5.656854
  1
３７
 41
0.42
  7
EXCADSTD
 72
     5
 11
213.156645
 21
32.171573
 31
0.0
100
AcDbText
  0
POLYLINE
  5
579
100
AcDbEntity
  8
基本作図レイヤ
  6
CONTINUOUS
 62
     1
100
AcDb2dPolyline
 66
     1
 10
0.0
 20
0.0
 30
0.0
 70
   128
  0
VERTEX
  5
57A
100
AcDbEntity
  8
基本作図レイヤ
  6
CONTINUOUS
 62
     1
100
AcDbVertex
100
AcDb2dVertex
 10
197.438798
 20
49.412686
 30
0.0
  0
VERTEX
  5
57B
100
AcDbEntity
  8
基本作図レイヤ
  6
CONTINUOUS
 62
     1
100
AcDbVertex
100
AcDb2dVertex
 10
207.371899
 20
38.015475
 30
0.0
  0
SEQEND
  5
57C
100
AcDbEntity
  8
基本作図レイヤ
  6
CONTINUOUS
 62
     1
  0
LINE
  5
57D
100
AcDbEntity
  8
基本作図レイヤ
  6
CONTINUOUS
 62
     1
100
AcDbLine
 10
198.612803
 20
48.446139
 30
0.0
 11
197.438798
 21
49.412686
 31
0.0
  0
LINE
  5
57E
100
AcDbEntity
  8
基本作図レイヤ
  6
CONTINUOUS
 62
     1
100
AcDbLine
 10
197.438798
 20
49.412686
 30
0.0
 11
198.235869
 21
48.117626
 31
0.0
  0
POLYLINE
  5
57F
100
AcDbEntity
  8
基本作図レイヤ
  6
CONTINUOUS
 62
     1
100
AcDb2dPolyline
 66
     1
 10
0.0
 20
0.0
 30
0.0
 70
   128
  0
VERTEX
  5
580
100
AcDbEntity
  8
基本作図レイヤ
  6
CONTINUOUS
 62
     1
100
AcDbVertex
100
AcDb2dVertex
 10
178.252777
 20
107.7
 30
0.0
  0
VERTEX
  5
581
100
AcDbEntity
  8
基本作図レイヤ
  6
CONTINUOUS
 62
     1
100
AcDbVertex
100
AcDb2dVertex
 10
201.365846
 20
118.328795
 30
0.0
  0
SEQEND
  5
582
100
AcDbEntity
  8
基本作図レイヤ
  6
CONTINUOUS
 62
     1
  0
LINE
  5
583
100
AcDbEntity
  8
基本作図レイヤ
  6
CONTINUOUS
 62
     1
100
AcDbLine
 10
179.511134
 20
108.553836
 30
0.0
 11
178.252777
 21
107.7
 31
0.0
  0
LINE
  5
584
100
AcDbEntity
  8
基本作図レイヤ
  6
CONTINUOUS
 62
     1
100
AcDbLine
 10
178.252777
 20
107.7
 30
0.0
 11
179.720035
 21
108.099567
 31
0.0
  0
CIRCLE
  5
585
100
AcDbEntity
  8
基本作図レイヤ
  6
CONTINUOUS
 62
     1
100
AcDbCircle
 10
205.0
 20
120.0
 30
0.0
 40
4.0
  0
TEXT
  5
586
100
AcDbEntity
  8
基本作図レイヤ
  6
CONTINUOUS
 62
     3
100
AcDbText
 10
202.971573
 20
117.171573
 30
0.0
 40
5.656854
  1
２４
 41
0.42
  7
EXCADSTD
 72
     5
 11
208.156645
 21
117.171573
 31
0.0
100
AcDbText
  0
POLYLINE
  5
587
100
AcDbEntity
  8
基本作図レイヤ
  6
CONTINUOUS
 62
     1
100
AcDb2dPolyline
 66
     1
 10
0.0
 20
0.0
 30
0.0
 70
   128
  0
VERTEX
  5
588
100
AcDbEntity
  8
基本作図レイヤ
  6
CONTINUOUS
 62
     1
100
AcDbVertex
100
AcDb2dVertex
 10
177.65
 20
126.012549
 30
0.0
  0
VERTEX
  5
589
100
AcDbEntity
  8
基本作図レイヤ
  6
CONTINUOUS
 62
     1
100
AcDbVertex
100
AcDb2dVertex
 10
191.10163
 20
129.10406
 30
0.0
  0
SEQEND
  5
58A
100
AcDbEntity
  8
基本作図レイヤ
  6
CONTINUOUS
 62
     1
  0
LINE
  5
58B
100
AcDbEntity
  8
基本作図レイヤ
  6
CONTINUOUS
 62
     1
100
AcDbLine
 10
179.055893
 20
126.592175
 30
0.0
 11
177.65
 21
126.012549
 31
0.0
  0
LINE
  5
58C
100
AcDbEntity
  8
基本作図レイヤ
  6
CONTINUOUS
 62
     1
100
AcDbLine
 10
177.65
 20
126.012549
 30
0.0
 11
179.167885
 21
126.104879
 31
0.0
  0
CIRCLE
  5
58D
100
AcDbEntity
  8
基本作図レイヤ
  6
CONTINUOUS
 62
     1
100
AcDbCircle
 10
195.0
 20
130.0
 30
0.0
 40
4.0
  0
TEXT
  5
58E
100
AcDbEntity
  8
基本作図レイヤ
  6
CONTINUOUS
 62
     3
100
AcDbText
 10
192.971573
 20
127.171573
 30
0.0
 40
5.656854
  1
２６
 41
0.42
  7
EXCADSTD
 72
     5
 11
198.156645
 21
127.171573
 31
0.0
100
AcDbText
  0
POLYLINE
  5
58F
100
AcDbEntity
  8
基本作図レイヤ
  6
CONTINUOUS
 62
     1
100
AcDb2dPolyline
 66
     1
 10
0.0
 20
0.0
 30
0.0
 70
   128
  0
VERTEX
  5
590
100
AcDbEntity
  8
基本作図レイヤ
  6
CONTINUOUS
 62
     1
100
AcDbVertex
100
AcDb2dVertex
 10
166.100822
 20
126.171099
 30
0.0
  0
VERTEX
  5
591
100
AcDbEntity
  8
基本作図レイヤ
  6
CONTINUOUS
 62
     1
100
AcDbVertex
100
AcDb2dVertex
 10
191.39183
 20
138.27341
 30
0.0
  0
SEQEND
  5
592
100
AcDbEntity
  8
基本作図レイヤ
  6
CONTINUOUS
 62
     1
  0
LINE
  5
593
100
AcDbEntity
  8
基本作図レイヤ
  6
CONTINUOUS
 62
     1
100
AcDbLine
 10
167.345974
 20
127.04408
 30
0.0
 11
166.100822
 21
126.171099
 31
0.0
  0
LINE
  5
594
100
AcDbEntity
  8
基本作図レイヤ
  6
CONTINUOUS
 62
     1
100
AcDbLine
 10
166.100822
 20
126.171099
 30
0.0
 11
167.561798
 21
126.593059
 31
0.0
  0
CIRCLE
  5
595
100
AcDbEntity
  8
基本作図レイヤ
  6
CONTINUOUS
 62
     1
100
AcDbCircle
 10
195.0
 20
150.0
 30
0.0
 40
4.0
  0
TEXT
  5
596
100
AcDbEntity
  8
基本作図レイヤ
  6
CONTINUOUS
 62
     3
100
AcDbText
 10
192.971573
 20
147.171573
 30
0.0
 40
5.656854
  1
１２
 41
0.42
  7
EXCADSTD
 72
     5
 11
198.156645
 21
147.171573
 31
0.0
100
AcDbText
  0
POLYLINE
  5
597
100
AcDbEntity
  8
基本作図レイヤ
  6
CONTINUOUS
 62
     1
100
AcDb2dPolyline
 66
     1
 10
0.0
 20
0.0
 30
0.0
 70
   128
  0
VERTEX
  5
598
100
AcDbEntity
  8
基本作図レイヤ
  6
CONTINUOUS
 62
     1
100
AcDbVertex
100
AcDb2dVertex
 10
155.464079
 20
139.587492
 30
0.0
  0
VERTEX
  5
599
100
AcDbEntity
  8
基本作図レイヤ
  6
CONTINUOUS
 62
     1
100
AcDbVertex
100
AcDb2dVertex
 10
191.445769
 20
158.164941
 30
0.0
  0
SEQEND
  5
59A
100
AcDbEntity
  8
基本作図レイヤ
  6
CONTINUOUS
 62
     1
  0
LINE
  5
59B
100
AcDbEntity
  8
基本作図レイヤ
  6
CONTINUOUS
 62
     1
100
AcDbLine
 10
156.682224
 20
140.497778
 30
0.0
 11
155.464079
 21
139.587492
 31
0.0
  0
LINE
  5
59C
100
AcDbEntity
  8
基本作図レイヤ
  6
CONTINUOUS
 62
     1
100
AcDbLine
 10
155.464079
 20
139.587492
 30
0.0
 11
156.911607
 21
140.053499
 31
0.0
  0
CIRCLE
  5
59D
100
AcDbEntity
  8
基本作図レイヤ
  6
CONTINUOUS
 62
     1
100
AcDbCircle
 10
195.0
 20
160.0
 30
0.0
 40
4.0
  0
TEXT
  5
59E
100
AcDbEntity
  8
基本作図レイヤ
  6
CONTINUOUS
 62
     3
100
AcDbText
 10
192.971573
 20
157.171573
 30
0.0
 40
5.656854
  1
３４
 41
0.42
  7
EXCADSTD
 72
     5
 11
198.156645
 21
157.171573
 31
0.0
100
AcDbText
  0
POLYLINE
  5
59F
100
AcDbEntity
  8
基本作図レイヤ
  6
CONTINUOUS
 62
     1
100
AcDb2dPolyline
 66
     1
 10
0.0
 20
0.0
 30
0.0
 70
   128
  0
VERTEX
  5
5A0
100
AcDbEntity
  8
基本作図レイヤ
  6
CONTINUOUS
 62
     1
100
AcDbVertex
100
AcDb2dVertex
 10
155.328963
 20
144.296287
 30
0.0
  0
VERTEX
  5
5A1
100
AcDbEntity
  8
基本作図レイヤ
  6
CONTINUOUS
 62
     1
100
AcDbVertex
100
AcDb2dVertex
 10
191.643041
 20
167.824954
 30
0.0
  0
SEQEND
  5
5A2
100
AcDbEntity
  8
基本作図レイヤ
  6
CONTINUOUS
 62
     1
  0
LINE
  5
5A3
100
AcDbEntity
  8
基本作図レイヤ
  6
CONTINUOUS
 62
     1
100
AcDbLine
 10
156.451882
 20
145.321739
 30
0.0
 11
155.328963
 21
144.296287
 31
0.0
  0
LINE
  5
5A4
100
AcDbEntity
  8
基本作図レイヤ
  6
CONTINUOUS
 62
     1
100
AcDbLine
 10
155.328963
 20
144.296287
 30
0.0
 11
156.723763
 21
144.902119
 31
0.0
  0
CIRCLE
  5
5A5
100
AcDbEntity
  8
基本作図レイヤ
  6
CONTINUOUS
 62
     1
100
AcDbCircle
 10
195.0
 20
170.0
 30
0.0
 40
4.0
  0
TEXT
  5
5A6
100
AcDbEntity
  8
基本作図レイヤ
  6
CONTINUOUS
 62
     3
100
AcDbText
 10
192.971573
 20
167.171573
 30
0.0
 40
5.656854
  1
３３
 41
0.42
  7
EXCADSTD
 72
     5
 11
198.156645
 21
167.171573
 31
0.0
100
AcDbText
  0
POLYLINE
  5
5A7
100
AcDbEntity
  8
基本作図レイヤ
  6
CONTINUOUS
 62
     1
100
AcDb2dPolyline
 66
     1
 10
0.0
 20
0.0
 30
0.0
 70
   128
  0
VERTEX
  5
5A8
100
AcDbEntity
  8
基本作図レイヤ
  6
CONTINUOUS
 62
     1
100
AcDbVertex
100
AcDb2dVertex
 10
129.5
 20
86.762549
 30
0.0
  0
VERTEX
  5
5A9
100
AcDbEntity
  8
基本作図レイヤ
  6
CONTINUOUS
 62
     1
100
AcDbVertex
100
AcDb2dVertex
 10
73.998246
 20
85.118439
 30
0.0
  0
SEQEND
  5
5AA
100
AcDbEntity
  8
基本作図レイヤ
  6
CONTINUOUS
 62
     1
  0
LINE
  5
5AB
100
AcDbEntity
  8
基本作図レイヤ
  6
CONTINUOUS
 62
     1
100
AcDbLine
 10
128.00806
 20
86.468244
 30
0.0
 11
129.5
 21
86.762549
 31
0.0
  0
LINE
  5
5AC
100
AcDbEntity
  8
基本作図レイヤ
  6
CONTINUOUS
 62
     1
100
AcDbLine
 10
129.5
 20
86.762549
 30
0.0
 11
127.993255
 21
86.968025
 31
0.0
  0
CIRCLE
  5
5AD
100
AcDbEntity
  8
基本作図レイヤ
  6
CONTINUOUS
 62
     1
100
AcDbCircle
 10
70.0
 20
85.0
 30
0.0
 40
4.0
  0
TEXT
  5
5AE
100
AcDbEntity
  8
基本作図レイヤ
  6
CONTINUOUS
 62
     3
100
AcDbText
 10
67.971573
 20
82.171573
 30
0.0
 40
5.656854
  1
９
 41
0.84
  7
EXCADSTD
 72
     5
 11
72.497056
 21
82.171573
 31
0.0
100
AcDbText
  0
POLYLINE
  5
5AF
100
AcDbEntity
  8
基本作図レイヤ
  6
CONTINUOUS
 62
     1
100
AcDb2dPolyline
 66
     1
 10
0.0
 20
0.0
 30
0.0
 70
   128
  0
VERTEX
  5
5B0
100
AcDbEntity
  8
基本作図レイヤ
  6
CONTINUOUS
 62
     1
100
AcDbVertex
100
AcDb2dVertex
 10
154.634043
 20
160.082325
 30
0.0
  0
VERTEX
  5
5B1
100
AcDbEntity
  8
基本作図レイヤ
  6
CONTINUOUS
 62
     1
100
AcDbVertex
100
AcDb2dVertex
 10
191.412911
 20
178.230031
 30
0.0
  0
SEQEND
  5
5B2
100
AcDbEntity
  8
基本作図レイヤ
  6
CONTINUOUS
 62
     1
  0
LINE
  5
5B3
100
AcDbEntity
  8
基本作図レイヤ
  6
CONTINUOUS
 62
     1
100
AcDbLine
 10
155.868579
 20
160.970257
 30
0.0
 11
154.634043
 21
160.082325
 31
0.0
  0
LINE
  5
5B4
100
AcDbEntity
  8
基本作図レイヤ
  6
CONTINUOUS
 62
     1
100
AcDbLine
 10
154.634043
 20
160.082325
 30
0.0
 11
156.089825
 21
160.521871
 31
0.0
  0
CIRCLE
  5
5B5
100
AcDbEntity
  8
基本作図レイヤ
  6
CONTINUOUS
 62
     1
100
AcDbCircle
 10
195.0
 20
180.0
 30
0.0
 40
4.0
  0
TEXT
  5
5B6
100
AcDbEntity
  8
基本作図レイヤ
  6
CONTINUOUS
 62
     3
100
AcDbText
 10
192.971573
 20
177.171573
 30
0.0
 40
5.656854
  1
２
 41
0.84
  7
EXCADSTD
 72
     5
 11
197.497056
 21
177.171573
 31
0.0
100
AcDbText
  0
POLYLINE
  5
5B7
100
AcDbEntity
  8
基本作図レイヤ
  6
CONTINUOUS
 62
     1
100
AcDb2dPolyline
 66
     1
 10
0.0
 20
0.0
 30
0.0
 70
   128
  0
VERTEX
  5
5B8
100
AcDbEntity
  8
基本作図レイヤ
  6
CONTINUOUS
 62
     1
100
AcDbVertex
100
AcDb2dVertex
 10
148.0
 20
172.466025
 30
0.0
  0
VERTEX
  5
5B9
100
AcDbEntity
  8
基本作図レイヤ
  6
CONTINUOUS
 62
     1
100
AcDbVertex
100
AcDb2dVertex
 10
191.252302
 20
188.601872
 30
0.0
  0
SEQEND
  5
5BA
100
AcDbEntity
  8
基本作図レイヤ
  6
CONTINUOUS
 62
     1
  0
LINE
  5
5BB
100
AcDbEntity
  8
基本作図レイヤ
  6
CONTINUOUS
 62
     1
100
AcDbLine
 10
149.318004
 20
173.224555
 30
0.0
 11
148.0
 21
172.466025
 31
0.0
  0
LINE
  5
5BC
100
AcDbEntity
  8
基本作図レイヤ
  6
CONTINUOUS
 62
     1
100
AcDbLine
 10
148.0
 20
172.466025
 30
0.0
 11
149.49277
 21
172.756092
 31
0.0
  0
CIRCLE
  5
5BD
100
AcDbEntity
  8
基本作図レイヤ
  6
CONTINUOUS
 62
     1
100
AcDbCircle
 10
195.0
 20
190.0
 30
0.0
 40
4.0
  0
TEXT
  5
5BE
100
AcDbEntity
  8
基本作図レイヤ
  6
CONTINUOUS
 62
     3
100
AcDbText
 10
192.971573
 20
187.171573
 30
0.0
 40
5.656854
  1
１８
 41
0.42
  7
EXCADSTD
 72
     5
 11
198.156645
 21
187.171573
 31
0.0
100
AcDbText
  0
POLYLINE
  5
5BF
100
AcDbEntity
  8
基本作図レイヤ
  6
CONTINUOUS
 62
     1
100
AcDb2dPolyline
 66
     1
 10
0.0
 20
0.0
 30
0.0
 70
   128
  0
VERTEX
  5
5C0
100
AcDbEntity
  8
基本作図レイヤ
  6
CONTINUOUS
 62
     1
100
AcDbVertex
100
AcDb2dVertex
 10
131.0
 20
179.3
 30
0.0
  0
VERTEX
  5
5C1
100
AcDbEntity
  8
基本作図レイヤ
  6
CONTINUOUS
 62
     1
100
AcDbVertex
100
AcDb2dVertex
 10
73.98265
 20
184.627851
 30
0.0
  0
SEQEND
  5
5C2
100
AcDbEntity
  8
基本作図レイヤ
  6
CONTINUOUS
 62
     1
  0
LINE
  5
5C3
100
AcDbEntity
  8
基本作図レイヤ
  6
CONTINUOUS
 62
     1
100
AcDbLine
 10
129.483247
 20
179.19064
 30
0.0
 11
131.0
 21
179.3
 31
0.0
  0
LINE
  5
5C4
100
AcDbEntity
  8
基本作図レイヤ
  6
CONTINUOUS
 62
     1
100
AcDbLine
 10
131.0
 20
179.3
 30
0.0
 11
129.529765
 21
179.688472
 31
0.0
  0
CIRCLE
  5
5C5
100
AcDbEntity
  8
基本作図レイヤ
  6
CONTINUOUS
 62
     1
100
AcDbCircle
 10
70.0
 20
185.0
 30
0.0
 40
4.0
  0
TEXT
  5
5C6
100
AcDbEntity
  8
基本作図レイヤ
  6
CONTINUOUS
 62
     3
100
AcDbText
 10
67.971573
 20
182.171573
 30
0.0
 40
5.656854
  1
１９
 41
0.42
  7
EXCADSTD
 72
     5
 11
73.156645
 21
182.171573
 31
0.0
100
AcDbText
  0
POLYLINE
  5
5C7
100
AcDbEntity
  8
基本作図レイヤ
  6
CONTINUOUS
 62
     1
100
AcDb2dPolyline
 66
     1
 10
0.0
 20
0.0
 30
0.0
 70
   128
  0
VERTEX
  5
5C8
100
AcDbEntity
  8
基本作図レイヤ
  6
CONTINUOUS
 62
     1
100
AcDbVertex
100
AcDb2dVertex
 10
127.75
 20
190.984237
 30
0.0
  0
VERTEX
  5
5C9
100
AcDbEntity
  8
基本作図レイヤ
  6
CONTINUOUS
 62
     1
100
AcDbVertex
100
AcDb2dVertex
 10
73.990364
 20
194.722522
 30
0.0
  0
SEQEND
  5
5CA
100
AcDbEntity
  8
基本作図レイヤ
  6
CONTINUOUS
 62
     1
  0
LINE
  5
5CB
100
AcDbEntity
  8
基本作図レイヤ
  6
CONTINUOUS
 62
     1
100
AcDbLine
 10
126.236271
 20
190.838894
 30
0.0
 11
127.75
 21
190.984237
 31
0.0
  0
LINE
  5
5CC
100
AcDbEntity
  8
基本作図レイヤ
  6
CONTINUOUS
 62
     1
100
AcDbLine
 10
127.75
 20
190.984237
 30
0.0
 11
126.270956
 21
191.337689
 31
0.0
  0
CIRCLE
  5
5CD
100
AcDbEntity
  8
基本作図レイヤ
  6
CONTINUOUS
 62
     1
100
AcDbCircle
 10
70.0
 20
195.0
 30
0.0
 40
4.0
  0
TEXT
  5
5CE
100
AcDbEntity
  8
基本作図レイヤ
  6
CONTINUOUS
 62
     3
100
AcDbText
 10
67.971573
 20
192.171573
 30
0.0
 40
5.656854
  1
３０
 41
0.42
  7
EXCADSTD
 72
     5
 11
73.156645
 21
192.171573
 31
0.0
100
AcDbText
  0
POLYLINE
  5
5CF
100
AcDbEntity
  8
基本作図レイヤ
  6
CONTINUOUS
 62
     1
100
AcDb2dPolyline
 66
     1
 10
0.0
 20
0.0
 30
0.0
 70
   128
  0
VERTEX
  5
5D0
100
AcDbEntity
  8
基本作図レイヤ
  6
CONTINUOUS
 62
     1
100
AcDbVertex
100
AcDb2dVertex
 10
137.675426
 20
200.45
 30
0.0
  0
VERTEX
  5
5D1
100
AcDbEntity
  8
基本作図レイヤ
  6
CONTINUOUS
 62
     1
100
AcDbVertex
100
AcDb2dVertex
 10
191.000123
 20
200.031399
 30
0.0
  0
SEQEND
  5
5D2
100
AcDbEntity
  8
基本作図レイヤ
  6
CONTINUOUS
 62
     1
  0
LINE
  5
5D3
100
AcDbEntity
  8
基本作図レイヤ
  6
CONTINUOUS
 62
     1
100
AcDbLine
 10
139.177343
 20
200.688218
 30
0.0
 11
137.675426
 21
200.45
 31
0.0
  0
LINE
  5
5D4
100
AcDbEntity
  8
基本作図レイヤ
  6
CONTINUOUS
 62
     1
100
AcDbLine
 10
137.675426
 20
200.45
 30
0.0
 11
139.173418
 21
200.188233
 31
0.0
  0
CIRCLE
  5
5D5
100
AcDbEntity
  8
基本作図レイヤ
  6
CONTINUOUS
 62
     1
100
AcDbCircle
 10
195.0
 20
200.0
 30
0.0
 40
4.0
  0
TEXT
  5
5D6
100
AcDbEntity
  8
基本作図レイヤ
  6
CONTINUOUS
 62
     3
100
AcDbText
 10
192.971573
 20
197.171573
 30
0.0
 40
5.656854
  1
２０
 41
0.42
  7
EXCADSTD
 72
     5
 11
198.156645
 21
197.171573
 31
0.0
100
AcDbText
  0
POLYLINE
  5
5D7
100
AcDbEntity
  8
基本作図レイヤ
  6
CONTINUOUS
 62
     1
100
AcDb2dPolyline
 66
     1
 10
0.0
 20
0.0
 30
0.0
 70
   128
  0
VERTEX
  5
5D8
100
AcDbEntity
  8
基本作図レイヤ
  6
CONTINUOUS
 62
     1
100
AcDbVertex
100
AcDb2dVertex
 10
142.9
 20
205.500293
 30
0.0
  0
VERTEX
  5
5D9
100
AcDbEntity
  8
基本作図レイヤ
  6
CONTINUOUS
 62
     1
100
AcDbVertex
100
AcDb2dVertex
 10
191.014835
 20
209.655814
 30
0.0
  0
SEQEND
  5
5DA
100
AcDbEntity
  8
基本作図レイヤ
  6
CONTINUOUS
 62
     1
  0
LINE
  5
5DB
100
AcDbEntity
  8
基本作図レイヤ
  6
CONTINUOUS
 62
     1
100
AcDbLine
 10
144.372925
 20
205.878436
 30
0.0
 11
142.9
 21
205.500293
 31
0.0
  0
LINE
  5
5DC
100
AcDbEntity
  8
基本作図レイヤ
  6
CONTINUOUS
 62
     1
100
AcDbLine
 10
142.9
 20
205.500293
 30
0.0
 11
144.415948
 21
205.38029
 31
0.0
  0
CIRCLE
  5
5DD
100
AcDbEntity
  8
基本作図レイヤ
  6
CONTINUOUS
 62
     1
100
AcDbCircle
 10
195.0
 20
210.0
 30
0.0
 40
4.0
  0
TEXT
  5
5DE
100
AcDbEntity
  8
基本作図レイヤ
  6
CONTINUOUS
 62
     3
100
AcDbText
 10
192.971573
 20
207.171573
 30
0.0
 40
5.656854
  1
２５
 41
0.42
  7
EXCADSTD
 72
     5
 11
198.156645
 21
207.171573
 31
0.0
100
AcDbText
  0
CIRCLE
  5
5DF
100
AcDbEntity
  8
基本作図レイヤ
  6
CONTINUOUS
 62
     1
100
AcDbCircle
 10
220.0
 20
35.0
 30
0.0
 40
4.0
  0
TEXT
  5
5E0
100
AcDbEntity
  8
基本作図レイヤ
  6
CONTINUOUS
 62
     3
100
AcDbText
 10
217.971573
 20
32.171573
 30
0.0
 40
5.656854
  1
４０
 41
0.42
  7
EXCADSTD
 72
     5
 11
223.156645
 21
32.171573
 31
0.0
100
AcDbText
  0
POLYLINE
  5
5E1
100
AcDbEntity
  8
基本作図レイヤ
  6
CONTINUOUS
 62
     1
100
AcDb2dPolyline
 66
     1
 10
0.0
 20
0.0
 30
0.0
 70
   128
  0
VERTEX
  5
5E2
100
AcDbEntity
  8
基本作図レイヤ
  6
CONTINUOUS
 62
     1
100
AcDbVertex
100
AcDb2dVertex
 10
210.25
 20
66.166025
 30
0.0
  0
VERTEX
  5
5E3
100
AcDbEntity
  8
基本作図レイヤ
  6
CONTINUOUS
 62
     1
100
AcDbVertex
100
AcDb2dVertex
 10
218.805715
 20
38.817549
 30
0.0
  0
SEQEND
  5
5E4
100
AcDbEntity
  8
基本作図レイヤ
  6
CONTINUOUS
 62
     1
  0
LINE
  5
5E5
100
AcDbEntity
  8
基本作図レイヤ
  6
CONTINUOUS
 62
     1
100
AcDbLine
 10
210.936454
 20
64.809087
 30
0.0
 11
210.25
 21
66.166025
 31
0.0
  0
LINE
  5
5E6
100
AcDbEntity
  8
基本作図レイヤ
  6
CONTINUOUS
 62
     1
100
AcDbLine
 10
210.25
 20
66.166025
 30
0.0
 11
210.45926
 21
64.659802
 31
0.0
  0
LINE
  5
5E7
100
AcDbEntity
  8
基本作図レイヤ
  6
CONTINUOUS
 62
     1
100
AcDbLine
 10
145.5
 20
103.012549
 30
0.0
 11
145.5
 21
104.512549
 31
0.0
  0
LINE
  5
5E8
100
AcDbEntity
  8
基本作図レイヤ
  6
CONTINUOUS
 62
     2
100
AcDbLine
 10
140.0
 20
103.012549
 30
0.0
 11
145.5
 21
103.012549
 31
0.0
  0
LINE
  5
5E9
100
AcDbEntity
  8
基本作図レイヤ
  6
CONTINUOUS
 62
     2
100
AcDbLine
 10
157.125
 20
104.512549
 30
0.0
 11
159.458214
 21
104.971542
 31
0.0
  0
LINE
  5
5EA
100
AcDbEntity
  8
基本作図レイヤ
  6
CONTINUOUS
 62
     2
100
AcDbLine
 10
151.5
 20
104.512549
 30
0.0
 11
151.5
 21
91.012549
 31
0.0
  0
LINE
  5
5EB
100
AcDbEntity
  8
基本作図レイヤ
  6
CONTINUOUS
 62
     2
100
AcDbLine
 10
122.0
 20
103.012549
 30
0.0
 11
129.0
 21
103.012549
 31
0.0
  0
LINE
  5
5EC
100
AcDbEntity
  8
基本作図レイヤ
  6
CONTINUOUS
 62
     2
100
AcDbLine
 10
111.875
 20
104.512549
 30
0.0
 11
109.541786
 21
104.971542
 31
0.0
  0
LINE
  5
5ED
100
AcDbEntity
  8
基本作図レイヤ
  6
CONTINUOUS
 62
     2
100
AcDbLine
 10
111.875
 20
104.512549
 30
0.0
 11
128.125
 21
104.512549
 31
0.0
  0
LINE
  5
5EE
100
AcDbEntity
  8
基本作図レイヤ
  6
CONTINUOUS
 62
     2
100
AcDbLine
 10
122.0
 20
103.012549
 30
0.0
 11
122.0
 21
104.512549
 31
0.0
  0
LINE
  5
5EF
100
AcDbEntity
  8
基本作図レイヤ
  6
CONTINUOUS
 62
     2
100
AcDbLine
 10
140.875
 20
104.512549
 30
0.0
 11
157.125
 21
104.512549
 31
0.0
  0
TEXT
  5
5F0
100
AcDbEntity
  8
基本作図レイヤ
  6
CONTINUOUS
 62
     3
100
AcDbText
 10
25.750001
 20
46.7
 30
0.0
 40
3.6
  1
ＪＩＳ２０Ｋ２０Ａフランジ
 41
0.84
  7
EXCADSTD
 72
     5
 11
72.549999
 21
46.7
 31
0.0
100
AcDbText
  0
POLYLINE
  5
5F1
100
AcDbEntity
  8
基本作図レイヤ
  6
CONTINUOUS
 62
     1
100
AcDb2dPolyline
 66
     1
 10
0.0
 20
0.0
 30
0.0
 70
   128
  0
VERTEX
  5
5F2
100
AcDbEntity
  8
基本作図レイヤ
  6
CONTINUOUS
 62
     1
100
AcDbVertex
100
AcDb2dVertex
 10
84.5
 20
64.95
 30
0.0
  0
VERTEX
  5
5F3
100
AcDbEntity
  8
基本作図レイヤ
  6
CONTINUOUS
 62
     1
100
AcDbVertex
100
AcDb2dVertex
 10
72.6
 20
46.2
 30
0.0
  0
VERTEX
  5
5F4
100
AcDbEntity
  8
基本作図レイヤ
  6
CONTINUOUS
 62
     1
100
AcDbVertex
100
AcDb2dVertex
 10
25.7
 20
46.2
 30
0.0
  0
SEQEND
  5
5F5
100
AcDbEntity
  8
基本作図レイヤ
  6
CONTINUOUS
 62
     1
  0
LINE
  5
5F6
100
AcDbEntity
  8
基本作図レイヤ
  6
CONTINUOUS
 62
     1
100
AcDbLine
 10
83.314589
 20
62.149143
 30
0.0
 11
84.5
 21
64.95
 31
0.0
  0
LINE
  5
5F7
100
AcDbEntity
  8
基本作図レイヤ
  6
CONTINUOUS
 62
     1
100
AcDbLine
 10
84.5
 20
64.95
 30
0.0
 11
82.470279
 21
62.684998
 31
0.0
  0
POLYLINE
  5
5F8
100
AcDbEntity
  8
基本作図レイヤ
  6
CONTINUOUS
 62
     1
100
AcDb2dPolyline
 66
     1
 10
0.0
 20
0.0
 30
0.0
 70
   128
  0
VERTEX
  5
5F9
100
AcDbEntity
  8
基本作図レイヤ
  6
CONTINUOUS
 62
     1
100
AcDbVertex
100
AcDb2dVertex
 10
235.25
 20
62.05
 30
0.0
  0
VERTEX
  5
5FA
100
AcDbEntity
  8
基本作図レイヤ
  6
CONTINUOUS
 62
     1
100
AcDbVertex
100
AcDb2dVertex
 10
246.25
 20
44.55
 30
0.0
  0
VERTEX
  5
5FB
100
AcDbEntity
  8
基本作図レイヤ
  6
CONTINUOUS
 62
     1
100
AcDbVertex
100
AcDb2dVertex
 10
292.4
 20
44.55
 30
0.0
  0
SEQEND
  5
5FC
100
AcDbEntity
  8
基本作図レイヤ
  6
CONTINUOUS
 62
     1
  0
LINE
  5
5FD
100
AcDbEntity
  8
基本作図レイヤ
  6
CONTINUOUS
 62
     1
100
AcDbLine
 10
237.269833
 20
59.776176
 30
0.0
 11
235.25
 21
62.05
 31
0.0
  0
LINE
  5
5FE
100
AcDbEntity
  8
基本作図レイヤ
  6
CONTINUOUS
 62
     1
100
AcDbLine
 10
235.25
 20
62.05
 30
0.0
 11
236.423196
 21
59.244005
 31
0.0
  0
TEXT
  5
5FF
100
AcDbEntity
  8
基本作図レイヤ
  6
CONTINUOUS
 62
     3
100
AcDbText
 10
245.925001
 20
45.05
 30
0.0
 40
3.6
  1
ＪＩＳ１０Ｋ２０Ａフランジ
 41
0.84
  7
EXCADSTD
 72
     5
 11
292.724999
 21
45.05
 31
0.0
100
AcDbText
  0
LINE
  5
600
100
AcDbEntity
  8
基本作図レイヤ
  6
CONTINUOUS
 62
     1
100
AcDbLine
 10
184.5
 20
62.416025
 30
0.0
 11
184.5
 21
58.008919
 31
0.0
  0
LINE
  5
601
100
AcDbEntity
  8
基本作図レイヤ
  6
CONTINUOUS
 62
     1
100
AcDbLine
 10
184.5
 20
83.516025
 30
0.0
 11
184.5
 21
87.923132
 31
0.0
  0
LINE
  5
602
100
AcDbEntity
  8
基本作図レイヤ
  6
CONTINUOUS
 62
     2
100
AcDbLine
 10
160.799952
 20
83.216025
 30
0.0
 11
175.0
 21
83.216025
 31
0.0
  0
LINE
  5
603
100
AcDbEntity
  8
基本作図レイヤ
  6
CONTINUOUS
 62
     2
100
AcDbLine
 10
159.782158
 20
62.716025
 30
0.0
 11
175.0
 21
62.716025
 31
0.0
  0
ARC
  5
604
100
AcDbEntity
  8
基本作図レイヤ
  6
CONTINUOUS
 62
     2
100
AcDbCircle
 10
175.0
 20
85.716025
 30
0.0
 40
2.5
100
AcDbArc
 50
270.0
 51
0.0
  0
ARC
  5
605
100
AcDbEntity
  8
基本作図レイヤ
  6
CONTINUOUS
 62
     2
100
AcDbCircle
 10
175.0
 20
60.216025
 30
0.0
 40
2.5
100
AcDbArc
 50
0.0
 51
90.0
  0
LINE
  5
606
100
AcDbEntity
  8
基本作図レイヤ
  6
CONTINUOUS
 62
     2
100
AcDbLine
 10
177.5
 20
47.966025
 30
0.0
 11
184.5
 21
47.966025
 31
0.0
  0
LINE
  5
607
100
AcDbEntity
  8
基本作図レイヤ
  6
CONTINUOUS
 62
     2
100
AcDbLine
 10
177.5
 20
97.966025
 30
0.0
 11
184.5
 21
97.966025
 31
0.0
  0
LINE
  5
608
100
AcDbEntity
  8
基本作図レイヤ
  6
CONTINUOUS
 62
     2
100
AcDbLine
 10
177.5
 20
97.966025
 30
0.0
 11
177.5
 21
85.716025
 31
0.0
  0
LINE
  5
609
100
AcDbEntity
  8
基本作図レイヤ
  6
CONTINUOUS
 62
     2
100
AcDbLine
 10
184.5
 20
72.966025
 30
0.0
 11
184.5
 21
97.966025
 31
0.0
  0
LINE
  5
60A
100
AcDbEntity
  8
基本作図レイヤ
  6
CONTINUOUS
 62
     2
100
AcDbLine
 10
177.5
 20
47.966025
 30
0.0
 11
177.5
 21
60.216025
 31
0.0
  0
LINE
  5
60B
100
AcDbEntity
  8
基本作図レイヤ
  6
CONTINUOUS
 62
     2
100
AcDbLine
 10
184.5
 20
72.966025
 30
0.0
 11
184.5
 21
47.966025
 31
0.0
  0
LINE
  5
60C
100
AcDbEntity
  8
基本作図レイヤ
  6
EXLTYPE4
 62
     1
100
AcDbLine
 10
184.5
 20
95.466025
 30
0.0
 11
177.5
 21
95.466025
 31
0.0
  0
LINE
  5
60D
100
AcDbEntity
  8
基本作図レイヤ
  6
EXLTYPE4
 62
     1
100
AcDbLine
 10
184.5
 20
87.966025
 30
0.0
 11
177.5
 21
87.966025
 31
0.0
  0
LINE
  5
60E
100
AcDbEntity
  8
基本作図レイヤ
  6
EXLTYPE4
 62
     1
100
AcDbLine
 10
184.5
 20
57.966025
 30
0.0
 11
177.5
 21
57.966025
 31
0.0
  0
LINE
  5
60F
100
AcDbEntity
  8
基本作図レイヤ
  6
EXLTYPE4
 62
     1
100
AcDbLine
 10
184.5
 20
50.466025
 30
0.0
 11
177.5
 21
50.466025
 31
0.0
  0
LINE
  5
610
100
AcDbEntity
  8
基本作図レイヤ
  6
CONTINUOUS
 62
     2
100
AcDbLine
 10
228.25
 20
47.966025
 30
0.0
 11
228.25
 21
66.166025
 31
0.0
  0
LINE
  5
611
100
AcDbEntity
  8
基本作図レイヤ
  6
CONTINUOUS
 62
     2
100
AcDbLine
 10
235.25
 20
47.966025
 30
0.0
 11
228.25
 21
47.966025
 31
0.0
  0
LINE
  5
612
100
AcDbEntity
  8
基本作図レイヤ
  6
EXLTYPE4
 62
     1
100
AcDbLine
 10
228.25
 20
50.466025
 30
0.0
 11
235.25
 21
50.466025
 31
0.0
  0
LINE
  5
613
100
AcDbEntity
  8
基本作図レイヤ
  6
EXLTYPE4
 62
     1
100
AcDbLine
 10
228.25
 20
57.966025
 30
0.0
 11
235.25
 21
57.966025
 31
0.0
  0
LINE
  5
614
100
AcDbEntity
  8
基本作図レイヤ
  6
EXLTYPE3
 62
     1
100
AcDbLine
 10
224.6
 20
54.216025
 30
0.0
 11
239.4
 21
54.216025
 31
0.0
  0
LINE
  5
615
100
AcDbEntity
  8
基本作図レイヤ
  6
CONTINUOUS
 62
     2
100
AcDbLine
 10
228.25
 20
64.316025
 30
0.0
 11
226.4
 21
66.166025
 31
0.0
  0
LINE
  5
616
100
AcDbEntity
  8
基本作図レイヤ
  6
CONTINUOUS
 62
     2
100
AcDbLine
 10
235.25
 20
47.966025
 30
0.0
 11
235.25
 21
72.966025
 31
0.0
  0
LINE
  5
617
100
AcDbEntity
  8
基本作図レイヤ
  6
CONTINUOUS
 62
     2
100
AcDbLine
 10
228.25
 20
97.966025
 30
0.0
 11
228.25
 21
79.766025
 31
0.0
  0
LINE
  5
618
100
AcDbEntity
  8
基本作図レイヤ
  6
CONTINUOUS
 62
     2
100
AcDbLine
 10
235.25
 20
97.966025
 30
0.0
 11
228.25
 21
97.966025
 31
0.0
  0
LINE
  5
619
100
AcDbEntity
  8
基本作図レイヤ
  6
EXLTYPE4
 62
     1
100
AcDbLine
 10
228.25
 20
95.466025
 30
0.0
 11
235.25
 21
95.466025
 31
0.0
  0
LINE
  5
61A
100
AcDbEntity
  8
基本作図レイヤ
  6
EXLTYPE4
 62
     1
100
AcDbLine
 10
228.25
 20
87.966025
 30
0.0
 11
235.25
 21
87.966025
 31
0.0
  0
LINE
  5
61B
100
AcDbEntity
  8
基本作図レイヤ
  6
EXLTYPE3
 62
     1
100
AcDbLine
 10
224.6
 20
91.716025
 30
0.0
 11
239.4
 21
91.716025
 31
0.0
  0
LINE
  5
61C
100
AcDbEntity
  8
基本作図レイヤ
  6
CONTINUOUS
 62
     2
100
AcDbLine
 10
228.25
 20
81.616025
 30
0.0
 11
226.4
 21
79.766025
 31
0.0
  0
LINE
  5
61D
100
AcDbEntity
  8
基本作図レイヤ
  6
CONTINUOUS
 62
     2
100
AcDbLine
 10
235.25
 20
97.966025
 30
0.0
 11
235.25
 21
72.966025
 31
0.0
  0
LINE
  5
61E
100
AcDbEntity
  8
基本作図レイヤ
  6
CONTINUOUS
 62
     2
100
AcDbLine
 10
192.25
 20
47.966025
 30
0.0
 11
192.25
 21
66.166025
 31
0.0
  0
LINE
  5
61F
100
AcDbEntity
  8
基本作図レイヤ
  6
CONTINUOUS
 62
     2
100
AcDbLine
 10
185.25
 20
47.966025
 30
0.0
 11
192.25
 21
47.966025
 31
0.0
  0
LINE
  5
620
100
AcDbEntity
  8
基本作図レイヤ
  6
EXLTYPE4
 62
     1
100
AcDbLine
 10
192.25
 20
50.466025
 30
0.0
 11
185.25
 21
50.466025
 31
0.0
  0
LINE
  5
621
100
AcDbEntity
  8
基本作図レイヤ
  6
EXLTYPE4
 62
     1
100
AcDbLine
 10
192.25
 20
57.966025
 30
0.0
 11
185.25
 21
57.966025
 31
0.0
  0
LINE
  5
622
100
AcDbEntity
  8
基本作図レイヤ
  6
CONTINUOUS
 62
     2
100
AcDbLine
 10
192.25
 20
64.316025
 30
0.0
 11
194.1
 21
66.166025
 31
0.0
  0
LINE
  5
623
100
AcDbEntity
  8
基本作図レイヤ
  6
CONTINUOUS
 62
     2
100
AcDbLine
 10
185.25
 20
47.966025
 30
0.0
 11
185.25
 21
72.966025
 31
0.0
  0
LINE
  5
624
100
AcDbEntity
  8
基本作図レイヤ
  6
CONTINUOUS
 62
     2
100
AcDbLine
 10
192.25
 20
97.966025
 30
0.0
 11
192.25
 21
79.766025
 31
0.0
  0
LINE
  5
625
100
AcDbEntity
  8
基本作図レイヤ
  6
CONTINUOUS
 62
     2
100
AcDbLine
 10
185.25
 20
97.966025
 30
0.0
 11
192.25
 21
97.966025
 31
0.0
  0
LINE
  5
626
100
AcDbEntity
  8
基本作図レイヤ
  6
EXLTYPE4
 62
     1
100
AcDbLine
 10
192.25
 20
95.466025
 30
0.0
 11
185.25
 21
95.466025
 31
0.0
  0
LINE
  5
627
100
AcDbEntity
  8
基本作図レイヤ
  6
EXLTYPE4
 62
     1
100
AcDbLine
 10
192.25
 20
87.966025
 30
0.0
 11
185.25
 21
87.966025
 31
0.0
  0
LINE
  5
628
100
AcDbEntity
  8
基本作図レイヤ
  6
CONTINUOUS
 62
     2
100
AcDbLine
 10
192.25
 20
81.616025
 30
0.0
 11
194.1
 21
79.766025
 31
0.0
  0
LINE
  5
629
100
AcDbEntity
  8
基本作図レイヤ
  6
CONTINUOUS
 62
     2
100
AcDbLine
 10
185.25
 20
97.966025
 30
0.0
 11
185.25
 21
72.966025
 31
0.0
  0
LINE
  5
62A
100
AcDbEntity
  8
基本作図レイヤ
  6
EXLTYPE3
 62
     1
100
AcDbLine
 10
195.25
 20
91.716025
 30
0.0
 11
173.810683
 21
91.716025
 31
0.0
  0
LINE
  5
62B
100
AcDbEntity
  8
基本作図レイヤ
  6
EXLTYPE3
 62
     1
100
AcDbLine
 10
195.75
 20
54.216025
 30
0.0
 11
173.810683
 21
54.216025
 31
0.0
  0
LINE
  5
62C
100
AcDbEntity
  8
基本作図レイヤ
  6
CONTINUOUS
 62
     2
100
AcDbLine
 10
192.248371
 20
97.966025
 30
0.0
 11
192.248371
 21
85.716025
 31
0.0
  0
LINE
  5
62D
100
AcDbEntity
  8
基本作図レイヤ
  6
CONTINUOUS
 62
     2
100
AcDbLine
 10
193.5
 20
94.458439
 30
0.0
 11
197.075747
 21
94.458439
 31
0.0
  0
LINE
  5
62E
100
AcDbEntity
  8
基本作図レイヤ
  6
CONTINUOUS
 62
     2
100
AcDbLine
 10
197.075747
 20
88.973612
 30
0.0
 11
193.500421
 21
88.973612
 31
0.0
  0
ARC
  5
62F
100
AcDbEntity
  8
基本作図レイヤ
  6
CONTINUOUS
 62
     2
100
AcDbCircle
 10
195.071968
 20
87.602405
 30
0.0
 40
2.428032
100
AcDbArc
 50
325.615753
 51
34.384247
  0
ARC
  5
630
100
AcDbEntity
  8
基本作図レイヤ
  6
CONTINUOUS
 62
     2
100
AcDbCircle
 10
195.071968
 20
95.829646
 30
0.0
 40
2.428032
100
AcDbArc
 50
325.615753
 51
34.384247
  0
ARC
  5
631
100
AcDbEntity
  8
基本作図レイヤ
  6
CONTINUOUS
 62
     2
100
AcDbCircle
 10
188.424253
 20
91.716025
 30
0.0
 40
9.075747
100
AcDbArc
 50
342.412046
 51
17.587954
  0
LINE
  5
632
100
AcDbEntity
  8
基本作図レイヤ
  6
CONTINUOUS
 62
     2
100
AcDbLine
 10
197.075747
 20
97.200853
 30
0.0
 11
193.499157
 21
97.200853
 31
0.0
  0
LINE
  5
633
100
AcDbEntity
  8
基本作図レイヤ
  6
CONTINUOUS
 62
     2
100
AcDbLine
 10
197.5
 20
96.466025
 30
0.0
 11
197.075747
 21
97.200853
 31
0.0
  0
LINE
  5
634
100
AcDbEntity
  8
基本作図レイヤ
  6
CONTINUOUS
 62
     2
100
AcDbLine
 10
197.5
 20
86.966025
 30
0.0
 11
197.5
 21
96.466025
 31
0.0
  0
LINE
  5
635
100
AcDbEntity
  8
基本作図レイヤ
  6
CONTINUOUS
 62
     2
100
AcDbLine
 10
197.075747
 20
86.231198
 30
0.0
 11
197.5
 21
86.966025
 31
0.0
  0
LINE
  5
636
100
AcDbEntity
  8
基本作図レイヤ
  6
CONTINUOUS
 62
     2
100
AcDbLine
 10
193.500843
 20
86.231198
 30
0.0
 11
197.075747
 21
86.231198
 31
0.0
  0
LINE
  5
637
100
AcDbEntity
  8
基本作図レイヤ
  6
CONTINUOUS
 62
     2
100
AcDbLine
 10
192.25
 20
86.231198
 30
0.0
 11
192.25
 21
97.200853
 31
0.0
  0
LINE
  5
638
100
AcDbEntity
  8
基本作図レイヤ
  6
CONTINUOUS
 62
     2
100
AcDbLine
 10
192.25
 20
85.716025
 30
0.0
 11
192.25
 21
91.716025
 31
0.0
  0
LINE
  5
639
100
AcDbEntity
  8
基本作図レイヤ
  6
CONTINUOUS
 62
     2
100
AcDbLine
 10
193.5
 20
85.716025
 30
0.0
 11
193.5
 21
91.716025
 31
0.0
  0
LINE
  5
63A
100
AcDbEntity
  8
基本作図レイヤ
  6
CONTINUOUS
 62
     2
100
AcDbLine
 10
192.25
 20
85.716025
 30
0.0
 11
193.5
 21
85.716025
 31
0.0
  0
LINE
  5
63B
100
AcDbEntity
  8
基本作図レイヤ
  6
CONTINUOUS
 62
     2
100
AcDbLine
 10
192.25
 20
97.716025
 30
0.0
 11
192.25
 21
91.716025
 31
0.0
  0
LINE
  5
63C
100
AcDbEntity
  8
基本作図レイヤ
  6
CONTINUOUS
 62
     2
100
AcDbLine
 10
193.5
 20
97.716025
 30
0.0
 11
193.5
 21
91.716025
 31
0.0
  0
LINE
  5
63D
100
AcDbEntity
  8
基本作図レイヤ
  6
CONTINUOUS
 62
     2
100
AcDbLine
 10
192.25
 20
97.716025
 30
0.0
 11
193.5
 21
97.716025
 31
0.0
  0
LINE
  5
63E
100
AcDbEntity
  8
基本作図レイヤ
  6
EXLTYPE3
 62
     1
100
AcDbLine
 10
166.570397
 20
91.716025
 30
0.0
 11
198.720397
 21
91.716025
 31
0.0
  0
LINE
  5
63F
100
AcDbEntity
  8
基本作図レイヤ
  6
CONTINUOUS
 62
     2
100
AcDbLine
 10
175.242138
 20
97.200853
 30
0.0
 11
175.242138
 21
86.231198
 31
0.0
  0
LINE
  5
640
100
AcDbEntity
  8
基本作図レイヤ
  6
CONTINUOUS
 62
     2
100
AcDbLine
 10
175.241716
 20
86.231198
 30
0.0
 11
170.66639
 21
86.231198
 31
0.0
  0
LINE
  5
641
100
AcDbEntity
  8
基本作図レイヤ
  6
CONTINUOUS
 62
     2
100
AcDbLine
 10
170.66639
 20
97.200853
 30
0.0
 11
175.243402
 21
97.200853
 31
0.0
  0
LINE
  5
642
100
AcDbEntity
  8
基本作図レイヤ
  6
CONTINUOUS
 62
     2
100
AcDbLine
 10
170.66639
 20
88.973612
 30
0.0
 11
175.242138
 21
88.973612
 31
0.0
  0
LINE
  5
643
100
AcDbEntity
  8
基本作図レイヤ
  6
CONTINUOUS
 62
     2
100
AcDbLine
 10
175.242559
 20
94.458439
 30
0.0
 11
170.66639
 21
94.458439
 31
0.0
  0
LINE
  5
644
100
AcDbEntity
  8
基本作図レイヤ
  6
CONTINUOUS
 62
     2
100
AcDbLine
 10
175.242138
 20
86.231198
 30
0.0
 11
176.241177
 21
86.231198
 31
0.0
  0
LINE
  5
645
100
AcDbEntity
  8
基本作図レイヤ
  6
CONTINUOUS
 62
     2
100
AcDbLine
 10
176.241177
 20
97.200853
 30
0.0
 11
175.242138
 21
97.200853
 31
0.0
  0
LINE
  5
646
100
AcDbEntity
  8
基本作図レイヤ
  6
CONTINUOUS
 62
     2
100
AcDbLine
 10
176.241177
 20
97.200853
 30
0.0
 11
176.241177
 21
86.231198
 31
0.0
  0
LINE
  5
647
100
AcDbEntity
  8
基本作図レイヤ
  6
CONTINUOUS
 62
     2
100
AcDbLine
 10
176.241177
 20
97.716025
 30
0.0
 11
176.241177
 21
91.716025
 31
0.0
  0
LINE
  5
648
100
AcDbEntity
  8
基本作図レイヤ
  6
CONTINUOUS
 62
     2
100
AcDbLine
 10
177.491177
 20
97.716025
 30
0.0
 11
177.491177
 21
91.716025
 31
0.0
  0
LINE
  5
649
100
AcDbEntity
  8
基本作図レイヤ
  6
CONTINUOUS
 62
     2
100
AcDbLine
 10
176.241177
 20
97.716025
 30
0.0
 11
177.491177
 21
97.716025
 31
0.0
  0
LINE
  5
64A
100
AcDbEntity
  8
基本作図レイヤ
  6
CONTINUOUS
 62
     2
100
AcDbLine
 10
176.241177
 20
85.716025
 30
0.0
 11
176.241177
 21
91.716025
 31
0.0
  0
LINE
  5
64B
100
AcDbEntity
  8
基本作図レイヤ
  6
CONTINUOUS
 62
     2
100
AcDbLine
 10
177.491177
 20
85.716025
 30
0.0
 11
177.491177
 21
91.716025
 31
0.0
  0
LINE
  5
64C
100
AcDbEntity
  8
基本作図レイヤ
  6
CONTINUOUS
 62
     2
100
AcDbLine
 10
176.241177
 20
85.716025
 30
0.0
 11
177.491177
 21
85.716025
 31
0.0
  0
LINE
  5
64D
100
AcDbEntity
  8
基本作図レイヤ
  6
CONTINUOUS
 62
     2
100
AcDbLine
 10
170.66639
 20
86.231198
 30
0.0
 11
170.242138
 21
86.966025
 31
0.0
  0
LINE
  5
64E
100
AcDbEntity
  8
基本作図レイヤ
  6
CONTINUOUS
 62
     2
100
AcDbLine
 10
170.242138
 20
86.966025
 30
0.0
 11
170.242138
 21
96.466025
 31
0.0
  0
LINE
  5
64F
100
AcDbEntity
  8
基本作図レイヤ
  6
CONTINUOUS
 62
     2
100
AcDbLine
 10
170.242138
 20
96.466025
 30
0.0
 11
170.66639
 21
97.200853
 31
0.0
  0
ARC
  5
650
100
AcDbEntity
  8
基本作図レイヤ
  6
CONTINUOUS
 62
     2
100
AcDbCircle
 10
179.317885
 20
91.716025
 30
0.0
 40
9.075747
100
AcDbArc
 50
162.412046
 51
197.587954
  0
ARC
  5
651
100
AcDbEntity
  8
基本作図レイヤ
  6
CONTINUOUS
 62
     2
100
AcDbCircle
 10
172.670169
 20
95.829646
 30
0.0
 40
2.428032
100
AcDbArc
 50
145.615753
 51
214.384247
  0
ARC
  5
652
100
AcDbEntity
  8
基本作図レイヤ
  6
CONTINUOUS
 62
     2
100
AcDbCircle
 10
172.670169
 20
87.602405
 30
0.0
 40
2.428032
100
AcDbArc
 50
145.615753
 51
214.384247
  0
LINE
  5
653
100
AcDbEntity
  8
基本作図レイヤ
  6
CONTINUOUS
 62
     2
100
AcDbLine
 10
169.0
 20
94.716025
 30
0.0
 11
168.5
 21
94.216025
 31
0.0
  0
LINE
  5
654
100
AcDbEntity
  8
基本作図レイヤ
  6
CONTINUOUS
 62
     2
100
AcDbLine
 10
168.5
 20
94.216025
 30
0.0
 11
168.5
 21
89.216025
 31
0.0
  0
LINE
  5
655
100
AcDbEntity
  8
基本作図レイヤ
  6
CONTINUOUS
 62
     2
100
AcDbLine
 10
168.5
 20
89.216025
 30
0.0
 11
169.0
 21
88.716025
 31
0.0
  0
LINE
  5
656
100
AcDbEntity
  8
基本作図レイヤ
  6
CONTINUOUS
 62
     2
100
AcDbLine
 10
169.0
 20
88.716025
 30
0.0
 11
169.0
 21
94.716025
 31
0.0
  0
LINE
  5
657
100
AcDbEntity
  8
基本作図レイヤ
  6
CONTINUOUS
 62
     2
100
AcDbLine
 10
169.0
 20
94.716025
 30
0.0
 11
170.242138
 21
94.716025
 31
0.0
  0
LINE
  5
658
100
AcDbEntity
  8
基本作図レイヤ
  6
CONTINUOUS
 62
     2
100
AcDbLine
 10
169.0
 20
88.716025
 30
0.0
 11
170.242138
 21
88.716025
 31
0.0
  0
LINE
  5
659
100
AcDbEntity
  8
基本作図レイヤ
  6
CONTINUOUS
 62
     1
100
AcDbLine
 10
170.242138
 20
94.216025
 30
0.0
 11
168.5
 21
94.216025
 31
0.0
  0
LINE
  5
65A
100
AcDbEntity
  8
基本作図レイヤ
  6
CONTINUOUS
 62
     1
100
AcDbLine
 10
168.5
 20
89.216025
 30
0.0
 11
170.242138
 21
89.216025
 31
0.0
  0
LINE
  5
65B
100
AcDbEntity
  8
基本作図レイヤ
  6
CONTINUOUS
 62
     2
100
AcDbLine
 10
192.248371
 20
60.466025
 30
0.0
 11
192.248371
 21
48.216025
 31
0.0
  0
LINE
  5
65C
100
AcDbEntity
  8
基本作図レイヤ
  6
CONTINUOUS
 62
     2
100
AcDbLine
 10
193.5
 20
56.958439
 30
0.0
 11
197.075747
 21
56.958439
 31
0.0
  0
LINE
  5
65D
100
AcDbEntity
  8
基本作図レイヤ
  6
CONTINUOUS
 62
     2
100
AcDbLine
 10
197.075747
 20
51.473612
 30
0.0
 11
193.500421
 21
51.473612
 31
0.0
  0
ARC
  5
65E
100
AcDbEntity
  8
基本作図レイヤ
  6
CONTINUOUS
 62
     2
100
AcDbCircle
 10
195.071968
 20
50.102405
 30
0.0
 40
2.428032
100
AcDbArc
 50
325.615753
 51
34.384247
  0
ARC
  5
65F
100
AcDbEntity
  8
基本作図レイヤ
  6
CONTINUOUS
 62
     2
100
AcDbCircle
 10
195.071968
 20
58.329646
 30
0.0
 40
2.428032
100
AcDbArc
 50
325.615753
 51
34.384247
  0
ARC
  5
660
100
AcDbEntity
  8
基本作図レイヤ
  6
CONTINUOUS
 62
     2
100
AcDbCircle
 10
188.424253
 20
54.216025
 30
0.0
 40
9.075747
100
AcDbArc
 50
342.412046
 51
17.587954
  0
LINE
  5
661
100
AcDbEntity
  8
基本作図レイヤ
  6
CONTINUOUS
 62
     2
100
AcDbLine
 10
197.075747
 20
59.700853
 30
0.0
 11
193.499157
 21
59.700853
 31
0.0
  0
LINE
  5
662
100
AcDbEntity
  8
基本作図レイヤ
  6
CONTINUOUS
 62
     2
100
AcDbLine
 10
197.5
 20
58.966025
 30
0.0
 11
197.075747
 21
59.700853
 31
0.0
  0
LINE
  5
663
100
AcDbEntity
  8
基本作図レイヤ
  6
CONTINUOUS
 62
     2
100
AcDbLine
 10
197.5
 20
49.466025
 30
0.0
 11
197.5
 21
58.966025
 31
0.0
  0
LINE
  5
664
100
AcDbEntity
  8
基本作図レイヤ
  6
CONTINUOUS
 62
     2
100
AcDbLine
 10
197.075747
 20
48.731198
 30
0.0
 11
197.5
 21
49.466025
 31
0.0
  0
LINE
  5
665
100
AcDbEntity
  8
基本作図レイヤ
  6
CONTINUOUS
 62
     2
100
AcDbLine
 10
193.500843
 20
48.731198
 30
0.0
 11
197.075747
 21
48.731198
 31
0.0
  0
LINE
  5
666
100
AcDbEntity
  8
基本作図レイヤ
  6
CONTINUOUS
 62
     2
100
AcDbLine
 10
192.25
 20
48.731198
 30
0.0
 11
192.25
 21
59.700853
 31
0.0
  0
LINE
  5
667
100
AcDbEntity
  8
基本作図レイヤ
  6
CONTINUOUS
 62
     2
100
AcDbLine
 10
192.25
 20
48.216025
 30
0.0
 11
192.25
 21
54.216025
 31
0.0
  0
LINE
  5
668
100
AcDbEntity
  8
基本作図レイヤ
  6
CONTINUOUS
 62
     2
100
AcDbLine
 10
193.5
 20
48.216025
 30
0.0
 11
193.5
 21
54.216025
 31
0.0
  0
LINE
  5
669
100
AcDbEntity
  8
基本作図レイヤ
  6
CONTINUOUS
 62
     2
100
AcDbLine
 10
192.25
 20
48.216025
 30
0.0
 11
193.5
 21
48.216025
 31
0.0
  0
LINE
  5
66A
100
AcDbEntity
  8
基本作図レイヤ
  6
CONTINUOUS
 62
     2
100
AcDbLine
 10
192.25
 20
60.216025
 30
0.0
 11
192.25
 21
54.216025
 31
0.0
  0
LINE
  5
66B
100
AcDbEntity
  8
基本作図レイヤ
  6
CONTINUOUS
 62
     2
100
AcDbLine
 10
193.5
 20
60.216025
 30
0.0
 11
193.5
 21
54.216025
 31
0.0
  0
LINE
  5
66C
100
AcDbEntity
  8
基本作図レイヤ
  6
CONTINUOUS
 62
     2
100
AcDbLine
 10
192.25
 20
60.216025
 30
0.0
 11
193.5
 21
60.216025
 31
0.0
  0
LINE
  5
66D
100
AcDbEntity
  8
基本作図レイヤ
  6
EXLTYPE3
 62
     1
100
AcDbLine
 10
166.570397
 20
54.216025
 30
0.0
 11
198.720397
 21
54.216025
 31
0.0
  0
LINE
  5
66E
100
AcDbEntity
  8
基本作図レイヤ
  6
CONTINUOUS
 62
     2
100
AcDbLine
 10
175.242138
 20
59.700853
 30
0.0
 11
175.242138
 21
48.731198
 31
0.0
  0
LINE
  5
66F
100
AcDbEntity
  8
基本作図レイヤ
  6
CONTINUOUS
 62
     2
100
AcDbLine
 10
175.241716
 20
48.731198
 30
0.0
 11
170.66639
 21
48.731198
 31
0.0
  0
LINE
  5
670
100
AcDbEntity
  8
基本作図レイヤ
  6
CONTINUOUS
 62
     2
100
AcDbLine
 10
170.66639
 20
59.700853
 30
0.0
 11
175.243402
 21
59.700853
 31
0.0
  0
LINE
  5
671
100
AcDbEntity
  8
基本作図レイヤ
  6
CONTINUOUS
 62
     2
100
AcDbLine
 10
170.66639
 20
51.473612
 30
0.0
 11
175.242138
 21
51.473612
 31
0.0
  0
LINE
  5
672
100
AcDbEntity
  8
基本作図レイヤ
  6
CONTINUOUS
 62
     2
100
AcDbLine
 10
175.242559
 20
56.958439
 30
0.0
 11
170.66639
 21
56.958439
 31
0.0
  0
LINE
  5
673
100
AcDbEntity
  8
基本作図レイヤ
  6
CONTINUOUS
 62
     2
100
AcDbLine
 10
175.242138
 20
48.731198
 30
0.0
 11
176.241177
 21
48.731198
 31
0.0
  0
LINE
  5
674
100
AcDbEntity
  8
基本作図レイヤ
  6
CONTINUOUS
 62
     2
100
AcDbLine
 10
176.241177
 20
59.700853
 30
0.0
 11
175.242138
 21
59.700853
 31
0.0
  0
LINE
  5
675
100
AcDbEntity
  8
基本作図レイヤ
  6
CONTINUOUS
 62
     2
100
AcDbLine
 10
176.241177
 20
59.700853
 30
0.0
 11
176.241177
 21
48.731198
 31
0.0
  0
LINE
  5
676
100
AcDbEntity
  8
基本作図レイヤ
  6
CONTINUOUS
 62
     2
100
AcDbLine
 10
176.241177
 20
60.216025
 30
0.0
 11
176.241177
 21
54.216025
 31
0.0
  0
LINE
  5
677
100
AcDbEntity
  8
基本作図レイヤ
  6
CONTINUOUS
 62
     2
100
AcDbLine
 10
177.491177
 20
60.216025
 30
0.0
 11
177.491177
 21
54.216025
 31
0.0
  0
LINE
  5
678
100
AcDbEntity
  8
基本作図レイヤ
  6
CONTINUOUS
 62
     2
100
AcDbLine
 10
176.241177
 20
60.216025
 30
0.0
 11
177.491177
 21
60.216025
 31
0.0
  0
LINE
  5
679
100
AcDbEntity
  8
基本作図レイヤ
  6
CONTINUOUS
 62
     2
100
AcDbLine
 10
176.241177
 20
48.216025
 30
0.0
 11
176.241177
 21
54.216025
 31
0.0
  0
LINE
  5
67A
100
AcDbEntity
  8
基本作図レイヤ
  6
CONTINUOUS
 62
     2
100
AcDbLine
 10
177.491177
 20
48.216025
 30
0.0
 11
177.491177
 21
54.216025
 31
0.0
  0
LINE
  5
67B
100
AcDbEntity
  8
基本作図レイヤ
  6
CONTINUOUS
 62
     2
100
AcDbLine
 10
176.241177
 20
48.216025
 30
0.0
 11
177.491177
 21
48.216025
 31
0.0
  0
LINE
  5
67C
100
AcDbEntity
  8
基本作図レイヤ
  6
CONTINUOUS
 62
     2
100
AcDbLine
 10
170.66639
 20
48.731198
 30
0.0
 11
170.242138
 21
49.466025
 31
0.0
  0
LINE
  5
67D
100
AcDbEntity
  8
基本作図レイヤ
  6
CONTINUOUS
 62
     2
100
AcDbLine
 10
170.242138
 20
49.466025
 30
0.0
 11
170.242138
 21
58.966025
 31
0.0
  0
LINE
  5
67E
100
AcDbEntity
  8
基本作図レイヤ
  6
CONTINUOUS
 62
     2
100
AcDbLine
 10
170.242138
 20
58.966025
 30
0.0
 11
170.66639
 21
59.700853
 31
0.0
  0
ARC
  5
67F
100
AcDbEntity
  8
基本作図レイヤ
  6
CONTINUOUS
 62
     2
100
AcDbCircle
 10
179.317885
 20
54.216025
 30
0.0
 40
9.075747
100
AcDbArc
 50
162.412046
 51
197.587954
  0
ARC
  5
680
100
AcDbEntity
  8
基本作図レイヤ
  6
CONTINUOUS
 62
     2
100
AcDbCircle
 10
172.670169
 20
58.329646
 30
0.0
 40
2.428032
100
AcDbArc
 50
145.615753
 51
214.384247
  0
ARC
  5
681
100
AcDbEntity
  8
基本作図レイヤ
  6
CONTINUOUS
 62
     2
100
AcDbCircle
 10
172.670169
 20
50.102405
 30
0.0
 40
2.428032
100
AcDbArc
 50
145.615753
 51
214.384247
  0
LINE
  5
682
100
AcDbEntity
  8
基本作図レイヤ
  6
CONTINUOUS
 62
     2
100
AcDbLine
 10
169.0
 20
57.216025
 30
0.0
 11
168.5
 21
56.716025
 31
0.0
  0
LINE
  5
683
100
AcDbEntity
  8
基本作図レイヤ
  6
CONTINUOUS
 62
     2
100
AcDbLine
 10
168.5
 20
56.716025
 30
0.0
 11
168.5
 21
51.716025
 31
0.0
  0
LINE
  5
684
100
AcDbEntity
  8
基本作図レイヤ
  6
CONTINUOUS
 62
     2
100
AcDbLine
 10
168.5
 20
51.716025
 30
0.0
 11
169.0
 21
51.216025
 31
0.0
  0
LINE
  5
685
100
AcDbEntity
  8
基本作図レイヤ
  6
CONTINUOUS
 62
     2
100
AcDbLine
 10
169.0
 20
51.216025
 30
0.0
 11
169.0
 21
57.216025
 31
0.0
  0
LINE
  5
686
100
AcDbEntity
  8
基本作図レイヤ
  6
CONTINUOUS
 62
     2
100
AcDbLine
 10
169.0
 20
57.216025
 30
0.0
 11
170.242138
 21
57.216025
 31
0.0
  0
LINE
  5
687
100
AcDbEntity
  8
基本作図レイヤ
  6
CONTINUOUS
 62
     2
100
AcDbLine
 10
169.0
 20
51.216025
 30
0.0
 11
170.242138
 21
51.216025
 31
0.0
  0
LINE
  5
688
100
AcDbEntity
  8
基本作図レイヤ
  6
CONTINUOUS
 62
     1
100
AcDbLine
 10
170.242138
 20
56.716025
 30
0.0
 11
168.5
 21
56.716025
 31
0.0
  0
LINE
  5
689
100
AcDbEntity
  8
基本作図レイヤ
  6
CONTINUOUS
 62
     1
100
AcDbLine
 10
168.5
 20
51.716025
 30
0.0
 11
170.242138
 21
51.716025
 31
0.0
  0
LINE
  5
68A
100
AcDbEntity
  8
基本作図レイヤ
  6
CONTINUOUS
 62
     2
100
AcDbLine
 10
160.954054
 20
83.848455
 30
0.0
 11
170.556555
 21
86.421438
 31
0.0
  0
ARC
  5
68B
100
AcDbEntity
  8
基本作図レイヤ
  6
CONTINUOUS
 62
     2
100
AcDbCircle
 10
172.5
 20
92.118563
 30
0.0
 40
5.0
100
AcDbArc
 50
355.38226
 51
0.0
  0
LINE
  5
68C
100
AcDbEntity
  8
基本作図レイヤ
  6
CONTINUOUS
 62
     2
100
AcDbLine
 10
160.954054
 20
62.083595
 30
0.0
 11
170.556555
 21
59.510613
 31
0.0
  0
ARC
  5
68D
100
AcDbEntity
  8
基本作図レイヤ
  6
CONTINUOUS
 62
     2
100
AcDbCircle
 10
172.5
 20
53.813488
 30
0.0
 40
5.0
100
AcDbArc
 50
0.0
 51
4.61774
  0
POLYLINE
  5
68E
100
AcDbEntity
  8
基本作図レイヤ
  6
CONTINUOUS
 62
     1
100
AcDb2dPolyline
 66
     1
 10
0.0
 20
0.0
 30
0.0
 70
   128
  0
VERTEX
  5
68F
100
AcDbEntity
  8
基本作図レイヤ
  6
CONTINUOUS
 62
     1
100
AcDbVertex
100
AcDb2dVertex
 10
193.5
 20
97.716025
 30
0.0
  0
VERTEX
  5
690
100
AcDbEntity
  8
基本作図レイヤ
  6
CONTINUOUS
 62
     1
100
AcDbVertex
100
AcDb2dVertex
 10
232.670892
 20
116.748038
 30
0.0
  0
SEQEND
  5
691
100
AcDbEntity
  8
基本作図レイヤ
  6
CONTINUOUS
 62
     1
  0
LINE
  5
692
100
AcDbEntity
  8
基本作図レイヤ
  6
CONTINUOUS
 62
     1
100
AcDbLine
 10
195.979849
 20
99.476806
 30
0.0
 11
193.5
 21
97.716025
 31
0.0
  0
LINE
  5
693
100
AcDbEntity
  8
基本作図レイヤ
  6
CONTINUOUS
 62
     1
100
AcDbLine
 10
193.5
 20
97.716025
 30
0.0
 11
196.416867
 21
98.577354
 31
0.0
  0
POLYLINE
  5
694
100
AcDbEntity
  8
基本作図レイヤ
  6
CONTINUOUS
 62
     1
100
AcDb2dPolyline
 66
     1
 10
0.0
 20
0.0
 30
0.0
 70
   128
  0
VERTEX
  5
695
100
AcDbEntity
  8
基本作図レイヤ
  6
CONTINUOUS
 62
     1
100
AcDbVertex
100
AcDb2dVertex
 10
175.242138
 20
97.200853
 30
0.0
  0
VERTEX
  5
696
100
AcDbEntity
  8
基本作図レイヤ
  6
CONTINUOUS
 62
     1
100
AcDbVertex
100
AcDb2dVertex
 10
222.963449
 20
116.55726
 30
0.0
  0
SEQEND
  5
697
100
AcDbEntity
  8
基本作図レイヤ
  6
CONTINUOUS
 62
     1
  0
LINE
  5
698
100
AcDbEntity
  8
基本作図レイヤ
  6
CONTINUOUS
 62
     1
100
AcDbLine
 10
177.834219
 20
98.791801
 30
0.0
 11
175.242138
 21
97.200853
 31
0.0
  0
LINE
  5
699
100
AcDbEntity
  8
基本作図レイヤ
  6
CONTINUOUS
 62
     1
100
AcDbLine
 10
175.242138
 20
97.200853
 30
0.0
 11
178.210089
 21
97.865129
 31
0.0
  0
POLYLINE
  5
69A
100
AcDbEntity
  8
基本作図レイヤ
  6
CONTINUOUS
 62
     1
100
AcDb2dPolyline
 66
     1
 10
0.0
 20
0.0
 30
0.0
 70
   128
  0
VERTEX
  5
69B
100
AcDbEntity
  8
基本作図レイヤ
  6
CONTINUOUS
 62
     1
100
AcDbVertex
100
AcDb2dVertex
 10
170.66639
 20
97.200853
 30
0.0
  0
VERTEX
  5
69C
100
AcDbEntity
  8
基本作図レイヤ
  6
CONTINUOUS
 62
     1
100
AcDbVertex
100
AcDb2dVertex
 10
212.194661
 20
117.148672
 30
0.0
  0
SEQEND
  5
69D
100
AcDbEntity
  8
基本作図レイヤ
  6
CONTINUOUS
 62
     1
  0
LINE
  5
69E
100
AcDbEntity
  8
基本作図レイヤ
  6
CONTINUOUS
 62
     1
100
AcDbLine
 10
173.154106
 20
98.950501
 30
0.0
 11
170.66639
 21
97.200853
 31
0.0
  0
LINE
  5
69F
100
AcDbEntity
  8
基本作図レイヤ
  6
CONTINUOUS
 62
     1
100
AcDbLine
 10
170.66639
 20
97.200853
 30
0.0
 11
173.587089
 21
98.049099
 31
0.0
  0
LINE
  5
6A0
100
AcDbEntity
  8
基本作図レイヤ
  6
CONTINUOUS
 62
     2
100
AcDbLine
 10
181.863589
 20
78.841025
 30
0.0
 11
181.863589
 21
67.091025
 31
0.0
  0
ARC
  5
6A1
100
AcDbEntity
  8
基本作図レイヤ
  6
CONTINUOUS
 62
     2
100
AcDbCircle
 10
180.5
 20
78.216025
 30
0.0
 40
1.5
100
AcDbArc
 50
24.624318
 51
90.0
  0
LINE
  5
6A2
100
AcDbEntity
  8
基本作図レイヤ
  6
CONTINUOUS
 62
     2
100
AcDbLine
 10
181.863589
 20
78.841025
 30
0.0
 11
184.5
 21
78.841025
 31
0.0
  0
LINE
  5
6A3
100
AcDbEntity
  8
基本作図レイヤ
  6
CONTINUOUS
 62
     2
100
AcDbLine
 10
181.863589
 20
67.091025
 30
0.0
 11
184.5
 21
67.091025
 31
0.0
  0
ARC
  5
6A4
100
AcDbEntity
  8
基本作図レイヤ
  6
CONTINUOUS
 62
     2
100
AcDbCircle
 10
180.5
 20
67.716025
 30
0.0
 40
1.5
100
AcDbArc
 50
270.0
 51
335.375682
  0
LINE
  5
6A5
100
AcDbEntity
  8
基本作図レイヤ
  6
CONTINUOUS
 62
     2
100
AcDbLine
 10
185.25
 20
66.166025
 30
0.0
 11
235.25
 21
66.166025
 31
0.0
  0
LINE
  5
6A6
100
AcDbEntity
  8
基本作図レイヤ
  6
CONTINUOUS
 62
     2
100
AcDbLine
 10
185.25
 20
79.766025
 30
0.0
 11
235.25
 21
79.766025
 31
0.0
  0
LINE
  5
6A7
100
AcDbEntity
  8
基本作図レイヤ
  6
CONTINUOUS
 62
     2
100
AcDbLine
 10
233.25
 20
79.766025
 30
0.0
 11
233.25
 21
66.166025
 31
0.0
  0
LINE
  5
6A8
100
AcDbEntity
  8
基本作図レイヤ
  6
CONTINUOUS
 62
     2
100
AcDbLine
 10
187.25
 20
79.766025
 30
0.0
 11
187.25
 21
66.166025
 31
0.0
  0
LINE
  5
6A9
100
AcDbEntity
  8
基本作図レイヤ
  6
CONTINUOUS
 62
     2
100
AcDbLine
 10
233.25
 20
78.316025
 30
0.0
 11
234.7
 21
79.766025
 31
0.0
  0
LINE
  5
6AA
100
AcDbEntity
  8
基本作図レイヤ
  6
CONTINUOUS
 62
     2
100
AcDbLine
 10
233.25
 20
67.616025
 30
0.0
 11
234.7
 21
66.166025
 31
0.0
  0
LINE
  5
6AB
100
AcDbEntity
  8
基本作図レイヤ
  6
CONTINUOUS
 62
     2
100
AcDbLine
 10
187.25
 20
67.616025
 30
0.0
 11
185.8
 21
66.166025
 31
0.0
  0
LINE
  5
6AC
100
AcDbEntity
  8
基本作図レイヤ
  6
CONTINUOUS
 62
     2
100
AcDbLine
 10
233.25
 20
67.616025
 30
0.0
 11
187.25
 21
67.616025
 31
0.0
  0
LINE
  5
6AD
100
AcDbEntity
  8
基本作図レイヤ
  6
CONTINUOUS
 62
     2
100
AcDbLine
 10
187.25
 20
78.316025
 30
0.0
 11
185.8
 21
79.766025
 31
0.0
  0
LINE
  5
6AE
100
AcDbEntity
  8
基本作図レイヤ
  6
CONTINUOUS
 62
     2
100
AcDbLine
 10
233.25
 20
78.316025
 30
0.0
 11
187.25
 21
78.316025
 31
0.0
  0
LINE
  5
6AF
100
AcDbEntity
  8
図面枠レイヤ
  6
CONTINUOUS
 62
     4
100
AcDbLine
 10
292.4
 20
7.0
 30
0.0
 11
292.4
 21
66.0
 31
0.0
  0
LINE
  5
6B0
100
AcDbEntity
  8
図面枠レイヤ
  6
CONTINUOUS
 62
     1
100
AcDbLine
 10
312.4
 20
33.0
 30
0.0
 11
312.4
 21
17.0
 31
0.0
  0
LINE
  5
6B1
100
AcDbEntity
  8
図面枠レイヤ
  6
CONTINUOUS
 62
     1
100
AcDbLine
 10
330.4
 20
17.0
 30
0.0
 11
330.4
 21
33.0
 31
0.0
  0
LINE
  5
6B2
100
AcDbEntity
  8
図面枠レイヤ
  6
CONTINUOUS
 62
     1
100
AcDbLine
 10
348.4
 20
33.0
 30
0.0
 11
348.4
 21
17.0
 31
0.0
  0
LINE
  5
6B3
100
AcDbEntity
  8
図面枠レイヤ
  6
CONTINUOUS
 62
     1
100
AcDbLine
 10
366.4
 20
17.0
 30
0.0
 11
366.4
 21
33.0
 31
0.0
  0
LINE
  5
6B4
100
AcDbEntity
  8
図面枠レイヤ
  6
CONTINUOUS
 62
     1
100
AcDbLine
 10
384.4
 20
17.0
 30
0.0
 11
384.4
 21
33.0
 31
0.0
  0
LINE
  5
6B5
100
AcDbEntity
  8
図面枠レイヤ
  6
CONTINUOUS
 62
     4
100
AcDbLine
 10
348.4
 20
46.0
 30
0.0
 11
348.4
 21
33.0
 31
0.0
  0
TEXT
  5
6B6
100
AcDbEntity
  8
図面枠レイヤ
  6
CONTINUOUS
 62
     3
100
AcDbText
 10
293.4
 20
66.5
 30
0.0
 40
4.0
  1
番号
 41
0.84
  7
EXCADSTD
 72
     5
 11
300.7328
 21
66.5
 31
0.0
100
AcDbText
  0
TEXT
  5
6B7
100
AcDbEntity
  8
図面枠レイヤ
  6
CONTINUOUS
 62
     3
100
AcDbText
 10
343.4
 20
66.4
 30
0.0
 40
4.0
  1
数量
 41
0.84
  7
EXCADSTD
 72
     5
 11
350.7328
 21
66.4
 31
0.0
100
AcDbText
  0
TEXT
  5
6B8
100
AcDbEntity
  8
図面枠レイヤ
  6
CONTINUOUS
 62
     3
100
AcDbText
 10
353.3
 20
66.5
 30
0.0
 40
4.0
  1
材質
 41
1.89
  7
EXCADSTD
 72
     5
 11
369.7988
 21
66.5
 31
0.0
100
AcDbText
  0
TEXT
  5
6B9
100
AcDbEntity
  8
図面枠レイヤ
  6
CONTINUOUS
 62
     3
100
AcDbText
 10
375.4
 20
66.4
 30
0.0
 40
4.0
  1
摘要
 41
2.415
  7
EXCADSTD
 72
     5
 11
396.4818
 21
66.4
 31
0.0
100
AcDbText
  0
TEXT
  5
6BA
100
AcDbEntity
  8
図面枠レイヤ
  6
CONTINUOUS
 62
     3
100
AcDbText
 10
305.7
 20
41.5
 30
0.0
 40
4.0
  1
製図
 41
3.255
  7
EXCADSTD
 72
     5
 11
334.1146
 21
41.5
 31
0.0
100
AcDbText
  0
TEXT
  5
6BB
100
AcDbEntity
  8
図面枠レイヤ
  6
CONTINUOUS
 62
     3
100
AcDbText
 10
360.4
 20
41.5
 30
0.0
 40
4.0
  1
図番
 41
3.255
  7
EXCADSTD
 72
     5
 11
388.8146
 21
41.5
 31
0.0
100
AcDbText
  0
TEXT
  5
6BC
100
AcDbEntity
  8
図面枠レイヤ
  6
CONTINUOUS
 62
     3
100
AcDbText
 10
296.0
 20
29.4
 30
0.0
 40
3.2
  1
尺度
 41
1.6275
  7
EXCADSTD
 72
     5
 11
307.36584
 21
29.4
 31
0.0
100
AcDbText
  0
TEXT
  5
6BD
100
AcDbEntity
  8
図面枠レイヤ
  6
CONTINUOUS
 62
     3
100
AcDbText
 10
316.0
 20
29.3
 30
0.0
 40
3.2
  1
図法
 41
1.6275
  7
EXCADSTD
 72
     5
 11
327.36584
 21
29.3
 31
0.0
100
AcDbText
  0
TEXT
  5
6BE
100
AcDbEntity
  8
図面枠レイヤ
  6
CONTINUOUS
 62
     3
100
AcDbText
 10
333.3
 20
29.4
 30
0.0
 40
3.2
  1
照査
 41
1.6275
  7
EXCADSTD
 72
     5
 11
344.66584
 21
29.4
 31
0.0
100
AcDbText
  0
TEXT
  5
6BF
100
AcDbEntity
  8
図面枠レイヤ
  6
CONTINUOUS
 62
     3
100
AcDbText
 10
351.3
 20
29.3
 30
0.0
 40
3.2
  1
検図
 41
1.6275
  7
EXCADSTD
 72
     5
 11
362.66584
 21
29.3
 31
0.0
100
AcDbText
  0
TEXT
  5
6C0
100
AcDbEntity
  8
図面枠レイヤ
  6
CONTINUOUS
 62
     3
100
AcDbText
 10
370.1
 20
29.4
 30
0.0
 40
3.2
  1
設計
 41
1.6275
  7
EXCADSTD
 72
     5
 11
381.46584
 21
29.4
 31
0.0
100
AcDbText
  0
TEXT
  5
6C1
100
AcDbEntity
  8
図面枠レイヤ
  6
CONTINUOUS
 62
     3
100
AcDbText
 10
387.5
 20
29.3
 30
0.0
 40
3.2
  1
製図
 41
1.6275
  7
EXCADSTD
 72
     5
 11
398.86584
 21
29.3
 31
0.0
100
AcDbText
  0
TEXT
  5
6C2
100
AcDbEntity
  8
図面枠レイヤ
  6
CONTINUOUS
 62
     3
100
AcDbText
 10
326.40884
 20
8.7
 30
0.0
 40
5.0
  1
伊藤工機株式会社
 41
1.008
  7
EXCADSTD
 72
     5
 11
374.40884
 21
8.7
 31
0.0
100
AcDbText
  0
POLYLINE
  5
6C3
100
AcDbEntity
  8
図面枠レイヤ
  6
CONTINUOUS
 62
     4
100
AcDb2dPolyline
 66
     1
 10
0.0
 20
0.0
 30
0.0
 70
   128
  0
VERTEX
  5
6C4
100
AcDbEntity
  8
図面枠レイヤ
  6
CONTINUOUS
 62
     4
100
AcDbVertex
100
AcDb2dVertex
 10
18.0
 20
289.0
 30
0.0
  0
VERTEX
  5
6C5
100
AcDbEntity
  8
図面枠レイヤ
  6
CONTINUOUS
 62
     4
100
AcDbVertex
100
AcDb2dVertex
 10
402.0
 20
289.0
 30
0.0
  0
VERTEX
  5
6C6
100
AcDbEntity
  8
図面枠レイヤ
  6
CONTINUOUS
 62
     4
100
AcDbVertex
100
AcDb2dVertex
 10
402.0
 20
7.0
 30
0.0
  0
VERTEX
  5
6C7
100
AcDbEntity
  8
図面枠レイヤ
  6
CONTINUOUS
 62
     4
100
AcDbVertex
100
AcDb2dVertex
 10
18.0
 20
7.0
 30
0.0
  0
VERTEX
  5
6C8
100
AcDbEntity
  8
図面枠レイヤ
  6
CONTINUOUS
 62
     4
100
AcDbVertex
100
AcDb2dVertex
 10
18.0
 20
289.0
 30
0.0
  0
SEQEND
  5
6C9
100
AcDbEntity
  8
図面枠レイヤ
  6
CONTINUOUS
 62
     4
  0
LINE
  5
6CA
100
AcDbEntity
  8
図面枠レイヤ
  6
CONTINUOUS
 62
     4
100
AcDbLine
 10
292.4
 20
66.0
 30
0.0
 11
402.0
 21
66.0
 31
0.0
  0
LINE
  5
6CB
100
AcDbEntity
  8
図面枠レイヤ
  6
CONTINUOUS
 62
     1
100
AcDbLine
 10
402.0
 20
71.0
 30
0.0
 11
292.4
 21
71.0
 31
0.0
  0
LINE
  5
6CC
100
AcDbEntity
  8
図面枠レイヤ
  6
CONTINUOUS
 62
     4
100
AcDbLine
 10
402.0
 20
46.0
 30
0.0
 11
292.4
 21
46.0
 31
0.0
  0
LINE
  5
6CD
100
AcDbEntity
  8
図面枠レイヤ
  6
CONTINUOUS
 62
     1
100
AcDbLine
 10
292.4
 20
41.0
 30
0.0
 11
402.0
 21
41.0
 31
0.0
  0
LINE
  5
6CE
100
AcDbEntity
  8
図面枠レイヤ
  6
CONTINUOUS
 62
     4
100
AcDbLine
 10
292.4
 20
33.0
 30
0.0
 11
402.0
 21
33.0
 31
0.0
  0
LINE
  5
6CF
100
AcDbEntity
  8
図面枠レイヤ
  6
CONTINUOUS
 62
     1
100
AcDbLine
 10
292.4
 20
29.0
 30
0.0
 11
402.0
 21
29.0
 31
0.0
  0
LINE
  5
6D0
100
AcDbEntity
  8
図面枠レイヤ
  6
CONTINUOUS
 62
     4
100
AcDbLine
 10
292.4
 20
17.0
 30
0.0
 11
402.0
 21
17.0
 31
0.0
  0
LINE
  5
6D1
100
AcDbEntity
  8
図面枠レイヤ
  6
CONTINUOUS
 62
     1
100
AcDbLine
 10
292.4
 20
76.0
 30
0.0
 11
402.0
 21
76.0
 31
0.0
  0
TEXT
  5
6D2
100
AcDbEntity
  8
図面枠レイヤ
  6
CONTINUOUS
 62
     3
100
AcDbText
 10
314.6
 20
20.9
 30
0.0
 40
3.6
  1
第３角法
 41
0.84
  7
EXCADSTD
 72
     5
 11
329.0
 21
20.9
 31
0.0
100
AcDbText
  0
LINE
  5
6D3
100
AcDbEntity
  8
図面枠レイヤ
  6
CONTINUOUS
 62
     1
100
AcDbLine
 10
292.4
 20
81.0
 30
0.0
 11
402.0
 21
81.0
 31
0.0
  0
LINE
  5
6D4
100
AcDbEntity
  8
図面枠レイヤ
  6
CONTINUOUS
 62
     1
100
AcDbLine
 10
292.4
 20
86.0
 30
0.0
 11
402.0
 21
86.0
 31
0.0
  0
LINE
  5
6D5
100
AcDbEntity
  8
図面枠レイヤ
  6
CONTINUOUS
 62
     1
100
AcDbLine
 10
292.4
 20
91.0
 30
0.0
 11
402.0
 21
91.0
 31
0.0
  0
LINE
  5
6D6
100
AcDbEntity
  8
図面枠レイヤ
  6
CONTINUOUS
 62
     1
100
AcDbLine
 10
292.4
 20
96.0
 30
0.0
 11
402.0
 21
96.0
 31
0.0
  0
LINE
  5
6D7
100
AcDbEntity
  8
図面枠レイヤ
  6
CONTINUOUS
 62
     1
100
AcDbLine
 10
292.4
 20
101.0
 30
0.0
 11
402.0
 21
101.0
 31
0.0
  0
TEXT
  5
6D8
100
AcDbEntity
  8
図面枠レイヤ
  6
CONTINUOUS
 62
     3
100
AcDbText
 10
295.53
 20
71.62
 30
0.0
 40
3.6
  1
１
 41
0.84
  7
EXCADSTD
 72
     5
 11
298.41
 21
71.62
 31
0.0
100
AcDbText
  0
TEXT
  5
6D9
100
AcDbEntity
  8
図面枠レイヤ
  6
CONTINUOUS
 62
     3
100
AcDbText
 10
295.53
 20
76.62
 30
0.0
 40
3.6
  1
２
 41
0.84
  7
EXCADSTD
 72
     5
 11
298.41
 21
76.62
 31
0.0
100
AcDbText
  0
TEXT
  5
6DA
100
AcDbEntity
  8
図面枠レイヤ
  6
CONTINUOUS
 62
     3
100
AcDbText
 10
295.53
 20
81.62
 30
0.0
 40
3.6
  1
３
 41
0.84
  7
EXCADSTD
 72
     5
 11
298.41
 21
81.62
 31
0.0
100
AcDbText
  0
TEXT
  5
6DB
100
AcDbEntity
  8
図面枠レイヤ
  6
CONTINUOUS
 62
     3
100
AcDbText
 10
295.53
 20
86.62
 30
0.0
 40
3.6
  1
４
 41
0.84
  7
EXCADSTD
 72
     5
 11
298.41
 21
86.62
 31
0.0
100
AcDbText
  0
TEXT
  5
6DC
100
AcDbEntity
  8
図面枠レイヤ
  6
CONTINUOUS
 62
     3
100
AcDbText
 10
295.53
 20
91.62
 30
0.0
 40
3.6
  1
５
 41
0.84
  7
EXCADSTD
 72
     5
 11
298.41
 21
91.62
 31
0.0
100
AcDbText
  0
TEXT
  5
6DD
100
AcDbEntity
  8
図面枠レイヤ
  6
CONTINUOUS
 62
     3
100
AcDbText
 10
295.53
 20
96.62
 30
0.0
 40
3.6
  1
６
 41
0.84
  7
EXCADSTD
 72
     5
 11
298.41
 21
96.62
 31
0.0
100
AcDbText
  0
LINE
  5
6DE
100
AcDbEntity
  8
図面枠レイヤ
  6
CONTINUOUS
 62
     1
100
AcDbLine
 10
292.4
 20
59.0
 30
0.0
 11
402.0
 21
59.0
 31
0.0
  0
LINE
  5
6DF
100
AcDbEntity
  8
図面枠レイヤ
  6
CONTINUOUS
 62
     1
100
AcDbLine
 10
292.4
 20
52.0
 30
0.0
 11
402.0
 21
52.0
 31
0.0
  0
TEXT
  5
6E0
100
AcDbEntity
  8
図面枠レイヤ
  6
CONTINUOUS
 62
     3
100
AcDbText
 10
326.8
 20
46.6
 30
0.0
 40
5.0
  1
組立図
 41
2.4248
  7
EXCADSTD
 72
     5
 11
370.099999
 21
46.6
 31
0.0
100
AcDbText
  0
LINE
  5
6E1
100
AcDbEntity
  8
図面枠レイヤ
  6
CONTINUOUS
 62
     1
100
AcDbLine
 10
307.4
 20
66.0
 30
0.0
 11
307.4
 21
52.0
 31
0.0
  0
TEXT
  5
6E2
100
AcDbEntity
  8
図面枠レイヤ
  6
CONTINUOUS
 62
     3
100
AcDbText
 10
294.6
 20
53.6
 30
0.0
 40
3.6
  1
品名
 41
1.342478
  7
EXCADSTD
 72
     5
 11
305.147274
 21
53.6
 31
0.0
100
AcDbText
  0
TEXT
  5
6E3
100
AcDbEntity
  8
図面枠レイヤ
  6
CONTINUOUS
 62
     3
100
AcDbText
 10
294.6
 20
60.6
 30
0.0
 40
3.6
  1
型式
 41
1.342478
  7
EXCADSTD
 72
     5
 11
305.147274
 21
60.6
 31
0.0
100
AcDbText
  0
TEXT
  5
6E4
100
AcDbEntity
  8
図面枠レイヤ
  6
CONTINUOUS
 62
     3
100
AcDbText
 10
308.2
 20
66.4
 30
0.0
 40
4.0
  1
部品名
 41
2.018381
  7
EXCADSTD
 72
     5
 11
337.034007
 21
66.4
 31
0.0
100
AcDbText
  0
LINE
  5
6E5
100
AcDbEntity
  8
図面枠レイヤ
  6
CONTINUOUS
 62
     1
100
AcDbLine
 10
292.4
 20
106.0
 30
0.0
 11
402.0
 21
106.0
 31
0.0
  0
LINE
  5
6E6
100
AcDbEntity
  8
図面枠レイヤ
  6
CONTINUOUS
 62
     1
100
AcDbLine
 10
292.4
 20
111.0
 30
0.0
 11
402.0
 21
111.0
 31
0.0
  0
LINE
  5
6E7
100
AcDbEntity
  8
図面枠レイヤ
  6
CONTINUOUS
 62
     1
100
AcDbLine
 10
292.4
 20
116.0
 30
0.0
 11
402.0
 21
116.0
 31
0.0
  0
LINE
  5
6E8
100
AcDbEntity
  8
図面枠レイヤ
  6
CONTINUOUS
 62
     1
100
AcDbLine
 10
292.4
 20
121.0
 30
0.0
 11
402.0
 21
121.0
 31
0.0
  0
LINE
  5
6E9
100
AcDbEntity
  8
図面枠レイヤ
  6
CONTINUOUS
 62
     1
100
AcDbLine
 10
292.4
 20
126.0
 30
0.0
 11
402.0
 21
126.0
 31
0.0
  0
LINE
  5
6EA
100
AcDbEntity
  8
図面枠レイヤ
  6
CONTINUOUS
 62
     1
100
AcDbLine
 10
402.0
 20
131.0
 30
0.0
 11
292.4
 21
131.0
 31
0.0
  0
LINE
  5
6EB
100
AcDbEntity
  8
図面枠レイヤ
  6
CONTINUOUS
 62
     1
100
AcDbLine
 10
292.4
 20
136.0
 30
0.0
 11
402.0
 21
136.0
 31
0.0
  0
LINE
  5
6EC
100
AcDbEntity
  8
図面枠レイヤ
  6
CONTINUOUS
 62
     1
100
AcDbLine
 10
292.4
 20
141.0
 30
0.0
 11
402.0
 21
141.0
 31
0.0
  0
LINE
  5
6ED
100
AcDbEntity
  8
図面枠レイヤ
  6
CONTINUOUS
 62
     1
100
AcDbLine
 10
292.4
 20
146.0
 30
0.0
 11
402.0
 21
146.0
 31
0.0
  0
LINE
  5
6EE
100
AcDbEntity
  8
図面枠レイヤ
  6
CONTINUOUS
 62
     1
100
AcDbLine
 10
292.4
 20
151.0
 30
0.0
 11
402.0
 21
151.0
 31
0.0
  0
LINE
  5
6EF
100
AcDbEntity
  8
図面枠レイヤ
  6
CONTINUOUS
 62
     1
100
AcDbLine
 10
292.4
 20
156.0
 30
0.0
 11
402.0
 21
156.0
 31
0.0
  0
LINE
  5
6F0
100
AcDbEntity
  8
図面枠レイヤ
  6
CONTINUOUS
 62
     1
100
AcDbLine
 10
292.4
 20
161.0
 30
0.0
 11
402.0
 21
161.0
 31
0.0
  0
LINE
  5
6F1
100
AcDbEntity
  8
図面枠レイヤ
  6
CONTINUOUS
 62
     1
100
AcDbLine
 10
292.4
 20
166.0
 30
0.0
 11
402.0
 21
166.0
 31
0.0
  0
LINE
  5
6F2
100
AcDbEntity
  8
図面枠レイヤ
  6
CONTINUOUS
 62
     1
100
AcDbLine
 10
292.4
 20
171.0
 30
0.0
 11
402.0
 21
171.0
 31
0.0
  0
LINE
  5
6F3
100
AcDbEntity
  8
図面枠レイヤ
  6
CONTINUOUS
 62
     1
100
AcDbLine
 10
292.4
 20
176.0
 30
0.0
 11
402.0
 21
176.0
 31
0.0
  0
LINE
  5
6F4
100
AcDbEntity
  8
図面枠レイヤ
  6
CONTINUOUS
 62
     1
100
AcDbLine
 10
292.4
 20
181.0
 30
0.0
 11
402.0
 21
181.0
 31
0.0
  0
LINE
  5
6F5
100
AcDbEntity
  8
図面枠レイヤ
  6
CONTINUOUS
 62
     1
100
AcDbLine
 10
292.4
 20
186.0
 30
0.0
 11
402.0
 21
186.0
 31
0.0
  0
LINE
  5
6F6
100
AcDbEntity
  8
図面枠レイヤ
  6
CONTINUOUS
 62
     1
100
AcDbLine
 10
402.0
 20
191.0
 30
0.0
 11
292.4
 21
191.0
 31
0.0
  0
LINE
  5
6F7
100
AcDbEntity
  8
図面枠レイヤ
  6
CONTINUOUS
 62
     1
100
AcDbLine
 10
292.4
 20
196.0
 30
0.0
 11
402.0
 21
196.0
 31
0.0
  0
LINE
  5
6F8
100
AcDbEntity
  8
図面枠レイヤ
  6
CONTINUOUS
 62
     1
100
AcDbLine
 10
292.4
 20
201.0
 30
0.0
 11
402.0
 21
201.0
 31
0.0
  0
LINE
  5
6F9
100
AcDbEntity
  8
図面枠レイヤ
  6
CONTINUOUS
 62
     1
100
AcDbLine
 10
292.4
 20
206.0
 30
0.0
 11
402.0
 21
206.0
 31
0.0
  0
LINE
  5
6FA
100
AcDbEntity
  8
図面枠レイヤ
  6
CONTINUOUS
 62
     1
100
AcDbLine
 10
292.4
 20
211.0
 30
0.0
 11
402.0
 21
211.0
 31
0.0
  0
LINE
  5
6FB
100
AcDbEntity
  8
図面枠レイヤ
  6
CONTINUOUS
 62
     1
100
AcDbLine
 10
292.4
 20
216.0
 30
0.0
 11
402.0
 21
216.0
 31
0.0
  0
LINE
  5
6FC
100
AcDbEntity
  8
図面枠レイヤ
  6
CONTINUOUS
 62
     1
100
AcDbLine
 10
292.4
 20
221.0
 30
0.0
 11
402.0
 21
221.0
 31
0.0
  0
LINE
  5
6FD
100
AcDbEntity
  8
図面枠レイヤ
  6
CONTINUOUS
 62
     1
100
AcDbLine
 10
292.4
 20
226.0
 30
0.0
 11
402.0
 21
226.0
 31
0.0
  0
LINE
  5
6FE
100
AcDbEntity
  8
図面枠レイヤ
  6
CONTINUOUS
 62
     1
100
AcDbLine
 10
292.4
 20
231.0
 30
0.0
 11
402.0
 21
231.0
 31
0.0
  0
LINE
  5
6FF
100
AcDbEntity
  8
図面枠レイヤ
  6
CONTINUOUS
 62
     1
100
AcDbLine
 10
292.4
 20
236.0
 30
0.0
 11
402.0
 21
236.0
 31
0.0
  0
LINE
  5
700
100
AcDbEntity
  8
図面枠レイヤ
  6
CONTINUOUS
 62
     1
100
AcDbLine
 10
292.4
 20
241.0
 30
0.0
 11
402.0
 21
241.0
 31
0.0
  0
LINE
  5
701
100
AcDbEntity
  8
図面枠レイヤ
  6
CONTINUOUS
 62
     1
100
AcDbLine
 10
292.4
 20
246.0
 30
0.0
 11
402.0
 21
246.0
 31
0.0
  0
TEXT
  5
702
100
AcDbEntity
  8
図面枠レイヤ
  6
CONTINUOUS
 62
     3
100
AcDbText
 10
295.53
 20
101.62
 30
0.0
 40
3.6
  1
７
 41
0.84
  7
EXCADSTD
 72
     5
 11
298.41
 21
101.62
 31
0.0
100
AcDbText
  0
TEXT
  5
703
100
AcDbEntity
  8
図面枠レイヤ
  6
CONTINUOUS
 62
     3
100
AcDbText
 10
295.53
 20
106.62
 30
0.0
 40
3.6
  1
８
 41
0.84
  7
EXCADSTD
 72
     5
 11
298.41
 21
106.62
 31
0.0
100
AcDbText
  0
TEXT
  5
704
100
AcDbEntity
  8
図面枠レイヤ
  6
CONTINUOUS
 62
     3
100
AcDbText
 10
295.53
 20
111.62
 30
0.0
 40
3.6
  1
９
 41
0.84
  7
EXCADSTD
 72
     5
 11
298.41
 21
111.62
 31
0.0
100
AcDbText
  0
TEXT
  5
705
100
AcDbEntity
  8
図面枠レイヤ
  6
CONTINUOUS
 62
     3
100
AcDbText
 10
293.83
 20
116.62
 30
0.0
 40
3.6
  1
１０
 41
0.84
  7
EXCADSTD
 72
     5
 11
300.42952
 21
116.62
 31
0.0
100
AcDbText
  0
TEXT
  5
706
100
AcDbEntity
  8
図面枠レイヤ
  6
CONTINUOUS
 62
     3
100
AcDbText
 10
293.83
 20
121.62
 30
0.0
 40
3.6
  1
１１
 41
0.84
  7
EXCADSTD
 72
     5
 11
300.42952
 21
121.62
 31
0.0
100
AcDbText
  0
TEXT
  5
707
100
AcDbEntity
  8
図面枠レイヤ
  6
CONTINUOUS
 62
     3
100
AcDbText
 10
293.83
 20
126.62
 30
0.0
 40
3.6
  1
１２
 41
0.84
  7
EXCADSTD
 72
     5
 11
300.42952
 21
126.62
 31
0.0
100
AcDbText
  0
TEXT
  5
708
100
AcDbEntity
  8
図面枠レイヤ
  6
CONTINUOUS
 62
     3
100
AcDbText
 10
293.83
 20
131.62
 30
0.0
 40
3.6
  1
１３
 41
0.84
  7
EXCADSTD
 72
     5
 11
300.42952
 21
131.62
 31
0.0
100
AcDbText
  0
TEXT
  5
709
100
AcDbEntity
  8
図面枠レイヤ
  6
CONTINUOUS
 62
     3
100
AcDbText
 10
293.83
 20
136.62
 30
0.0
 40
3.6
  1
１４
 41
0.84
  7
EXCADSTD
 72
     5
 11
300.42952
 21
136.62
 31
0.0
100
AcDbText
  0
TEXT
  5
70A
100
AcDbEntity
  8
図面枠レイヤ
  6
CONTINUOUS
 62
     3
100
AcDbText
 10
293.83
 20
141.62
 30
0.0
 40
3.6
  1
１５
 41
0.84
  7
EXCADSTD
 72
     5
 11
300.42952
 21
141.62
 31
0.0
100
AcDbText
  0
TEXT
  5
70B
100
AcDbEntity
  8
図面枠レイヤ
  6
CONTINUOUS
 62
     3
100
AcDbText
 10
293.83
 20
146.62
 30
0.0
 40
3.6
  1
１６
 41
0.84
  7
EXCADSTD
 72
     5
 11
300.42952
 21
146.62
 31
0.0
100
AcDbText
  0
TEXT
  5
70C
100
AcDbEntity
  8
図面枠レイヤ
  6
CONTINUOUS
 62
     3
100
AcDbText
 10
293.83
 20
151.62
 30
0.0
 40
3.6
  1
１７
 41
0.84
  7
EXCADSTD
 72
     5
 11
300.42952
 21
151.62
 31
0.0
100
AcDbText
  0
TEXT
  5
70D
100
AcDbEntity
  8
図面枠レイヤ
  6
CONTINUOUS
 62
     3
100
AcDbText
 10
293.83
 20
156.62
 30
0.0
 40
3.6
  1
１８
 41
0.84
  7
EXCADSTD
 72
     5
 11
300.42952
 21
156.62
 31
0.0
100
AcDbText
  0
TEXT
  5
70E
100
AcDbEntity
  8
図面枠レイヤ
  6
CONTINUOUS
 62
     3
100
AcDbText
 10
293.83
 20
161.62
 30
0.0
 40
3.6
  1
１９
 41
0.84
  7
EXCADSTD
 72
     5
 11
300.42952
 21
161.62
 31
0.0
100
AcDbText
  0
TEXT
  5
70F
100
AcDbEntity
  8
図面枠レイヤ
  6
CONTINUOUS
 62
     3
100
AcDbText
 10
293.83
 20
166.62
 30
0.0
 40
3.6
  1
２０
 41
0.84
  7
EXCADSTD
 72
     5
 11
300.42952
 21
166.62
 31
0.0
100
AcDbText
  0
TEXT
  5
710
100
AcDbEntity
  8
図面枠レイヤ
  6
CONTINUOUS
 62
     3
100
AcDbText
 10
293.83
 20
171.62
 30
0.0
 40
3.6
  1
２１
 41
0.84
  7
EXCADSTD
 72
     5
 11
300.42952
 21
171.62
 31
0.0
100
AcDbText
  0
TEXT
  5
711
100
AcDbEntity
  8
図面枠レイヤ
  6
CONTINUOUS
 62
     3
100
AcDbText
 10
293.83
 20
176.62
 30
0.0
 40
3.6
  1
２２
 41
0.84
  7
EXCADSTD
 72
     5
 11
300.42952
 21
176.62
 31
0.0
100
AcDbText
  0
TEXT
  5
712
100
AcDbEntity
  8
図面枠レイヤ
  6
CONTINUOUS
 62
     3
100
AcDbText
 10
293.83
 20
181.62
 30
0.0
 40
3.6
  1
２３
 41
0.84
  7
EXCADSTD
 72
     5
 11
300.42952
 21
181.62
 31
0.0
100
AcDbText
  0
TEXT
  5
713
100
AcDbEntity
  8
図面枠レイヤ
  6
CONTINUOUS
 62
     3
100
AcDbText
 10
293.83
 20
186.62
 30
0.0
 40
3.6
  1
２４
 41
0.84
  7
EXCADSTD
 72
     5
 11
300.42952
 21
186.62
 31
0.0
100
AcDbText
  0
TEXT
  5
714
100
AcDbEntity
  8
図面枠レイヤ
  6
CONTINUOUS
 62
     3
100
AcDbText
 10
293.83
 20
191.62
 30
0.0
 40
3.6
  1
２５
 41
0.84
  7
EXCADSTD
 72
     5
 11
300.42952
 21
191.62
 31
0.0
100
AcDbText
  0
TEXT
  5
715
100
AcDbEntity
  8
図面枠レイヤ
  6
CONTINUOUS
 62
     3
100
AcDbText
 10
293.83
 20
196.62
 30
0.0
 40
3.6
  1
２６
 41
0.84
  7
EXCADSTD
 72
     5
 11
300.42952
 21
196.62
 31
0.0
100
AcDbText
  0
TEXT
  5
716
100
AcDbEntity
  8
図面枠レイヤ
  6
CONTINUOUS
 62
     3
100
AcDbText
 10
293.83
 20
201.62
 30
0.0
 40
3.6
  1
２７
 41
0.84
  7
EXCADSTD
 72
     5
 11
300.42952
 21
201.62
 31
0.0
100
AcDbText
  0
TEXT
  5
717
100
AcDbEntity
  8
図面枠レイヤ
  6
CONTINUOUS
 62
     3
100
AcDbText
 10
293.83
 20
206.62
 30
0.0
 40
3.6
  1
２８
 41
0.84
  7
EXCADSTD
 72
     5
 11
300.42952
 21
206.62
 31
0.0
100
AcDbText
  0
TEXT
  5
718
100
AcDbEntity
  8
図面枠レイヤ
  6
CONTINUOUS
 62
     3
100
AcDbText
 10
293.83
 20
211.62
 30
0.0
 40
3.6
  1
２９
 41
0.84
  7
EXCADSTD
 72
     5
 11
300.42952
 21
211.62
 31
0.0
100
AcDbText
  0
TEXT
  5
719
100
AcDbEntity
  8
図面枠レイヤ
  6
CONTINUOUS
 62
     3
100
AcDbText
 10
293.83
 20
216.62
 30
0.0
 40
3.6
  1
３０
 41
0.84
  7
EXCADSTD
 72
     5
 11
300.42952
 21
216.62
 31
0.0
100
AcDbText
  0
TEXT
  5
71A
100
AcDbEntity
  8
図面枠レイヤ
  6
CONTINUOUS
 62
     3
100
AcDbText
 10
293.83
 20
221.62
 30
0.0
 40
3.6
  1
３１
 41
0.84
  7
EXCADSTD
 72
     5
 11
300.42952
 21
221.62
 31
0.0
100
AcDbText
  0
TEXT
  5
71B
100
AcDbEntity
  8
図面枠レイヤ
  6
CONTINUOUS
 62
     3
100
AcDbText
 10
293.83
 20
226.62
 30
0.0
 40
3.6
  1
３２
 41
0.84
  7
EXCADSTD
 72
     5
 11
300.42952
 21
226.62
 31
0.0
100
AcDbText
  0
TEXT
  5
71C
100
AcDbEntity
  8
図面枠レイヤ
  6
CONTINUOUS
 62
     3
100
AcDbText
 10
293.83
 20
231.62
 30
0.0
 40
3.6
  1
３３
 41
0.84
  7
EXCADSTD
 72
     5
 11
300.42952
 21
231.62
 31
0.0
100
AcDbText
  0
TEXT
  5
71D
100
AcDbEntity
  8
図面枠レイヤ
  6
CONTINUOUS
 62
     3
100
AcDbText
 10
293.83
 20
236.62
 30
0.0
 40
3.6
  1
３４
 41
0.84
  7
EXCADSTD
 72
     5
 11
300.42952
 21
236.62
 31
0.0
100
AcDbText
  0
TEXT
  5
71E
100
AcDbEntity
  8
図面枠レイヤ
  6
CONTINUOUS
 62
     3
100
AcDbText
 10
293.83
 20
241.62
 30
0.0
 40
3.6
  1
３５
 41
0.84
  7
EXCADSTD
 72
     5
 11
300.42952
 21
241.62
 31
0.0
100
AcDbText
  0
LINE
  5
71F
100
AcDbEntity
  8
図面枠レイヤ
  6
CONTINUOUS
 62
     1
100
AcDbLine
 10
292.4
 20
251.0
 30
0.0
 11
402.0
 21
251.0
 31
0.0
  0
LINE
  5
720
100
AcDbEntity
  8
図面枠レイヤ
  6
CONTINUOUS
 62
     1
100
AcDbLine
 10
292.4
 20
256.0
 30
0.0
 11
402.0
 21
256.0
 31
0.0
  0
LINE
  5
721
100
AcDbEntity
  8
図面枠レイヤ
  6
CONTINUOUS
 62
     1
100
AcDbLine
 10
292.4
 20
261.0
 30
0.0
 11
402.0
 21
261.0
 31
0.0
  0
LINE
  5
722
100
AcDbEntity
  8
図面枠レイヤ
  6
CONTINUOUS
 62
     1
100
AcDbLine
 10
292.4
 20
266.0
 30
0.0
 11
402.0
 21
266.0
 31
0.0
  0
LINE
  5
723
100
AcDbEntity
  8
図面枠レイヤ
  6
CONTINUOUS
 62
     1
100
AcDbLine
 10
292.4
 20
271.0
 30
0.0
 11
402.0
 21
271.0
 31
0.0
  0
TEXT
  5
724
100
AcDbEntity
  8
図面枠レイヤ
  6
CONTINUOUS
 62
     3
100
AcDbText
 10
293.83
 20
246.62
 30
0.0
 40
3.6
  1
３６
 41
0.84
  7
EXCADSTD
 72
     5
 11
300.42952
 21
246.62
 31
0.0
100
AcDbText
  0
TEXT
  5
725
100
AcDbEntity
  8
図面枠レイヤ
  6
CONTINUOUS
 62
     3
100
AcDbText
 10
293.83
 20
251.62
 30
0.0
 40
3.6
  1
３７
 41
0.84
  7
EXCADSTD
 72
     5
 11
300.42952
 21
251.62
 31
0.0
100
AcDbText
  0
TEXT
  5
726
100
AcDbEntity
  8
図面枠レイヤ
  6
CONTINUOUS
 62
     3
100
AcDbText
 10
293.83
 20
256.62
 30
0.0
 40
3.6
  1
３８
 41
0.84
  7
EXCADSTD
 72
     5
 11
300.42952
 21
256.62
 31
0.0
100
AcDbText
  0
TEXT
  5
727
100
AcDbEntity
  8
図面枠レイヤ
  6
CONTINUOUS
 62
     3
100
AcDbText
 10
293.83
 20
261.62
 30
0.0
 40
3.6
  1
３９
 41
0.84
  7
EXCADSTD
 72
     5
 11
300.42952
 21
261.62
 31
0.0
100
AcDbText
  0
TEXT
  5
728
100
AcDbEntity
  8
図面枠レイヤ
  6
CONTINUOUS
 62
     3
100
AcDbText
 10
293.83
 20
266.62
 30
0.0
 40
3.6
  1
４０
 41
0.84
  7
EXCADSTD
 72
     5
 11
300.42952
 21
266.62
 31
0.0
100
AcDbText
  0
TEXT
  5
729
100
AcDbEntity
  8
図面枠レイヤ
  6
CONTINUOUS
 62
     3
100
AcDbText
 10
306.1
 20
71.7
 30
0.0
 40
3.6
  1
本体
 41
0.84
  7
EXCADSTD
 72
     5
 11
312.69952
 21
71.7
 31
0.0
100
AcDbText
  0
TEXT
  5
72A
100
AcDbEntity
  8
図面枠レイヤ
  6
CONTINUOUS
 62
     3
100
AcDbText
 10
306.1
 20
76.7
 30
0.0
 40
3.6
  1
カバー
 41
0.84
  7
EXCADSTD
 72
     5
 11
316.9
 21
76.7
 31
0.0
100
AcDbText
  0
TEXT
  5
72B
100
AcDbEntity
  8
図面枠レイヤ
  6
CONTINUOUS
 62
     3
100
AcDbText
 10
306.1
 20
81.720458
 30
0.0
 40
3.6
  1
底キャップ
 41
0.84
  7
EXCADSTD
 72
     5
 11
324.1
 21
81.720458
 31
0.0
100
AcDbText
  0
TEXT
  5
72C
100
AcDbEntity
  8
図面枠レイヤ
  6
CONTINUOUS
 62
     3
100
AcDbText
 10
306.1
 20
86.740917
 30
0.0
 40
3.6
  1
ノズル
 41
0.84
  7
EXCADSTD
 72
     5
 11
316.9
 21
86.740917
 31
0.0
100
AcDbText
  0
TEXT
  5
72D
100
AcDbEntity
  8
図面枠レイヤ
  6
CONTINUOUS
 62
     3
100
AcDbText
 10
306.1
 20
91.761375
 30
0.0
 40
3.6
  1
弁体
 41
0.84
  7
EXCADSTD
 72
     5
 11
312.69952
 21
91.761375
 31
0.0
100
AcDbText
  0
TEXT
  5
72E
100
AcDbEntity
  8
図面枠レイヤ
  6
CONTINUOUS
 62
     3
100
AcDbText
 10
306.1
 20
96.781833
 30
0.0
 40
3.6
  1
弁棒
 41
0.84
  7
EXCADSTD
 72
     5
 11
312.69952
 21
96.781833
 31
0.0
100
AcDbText
  0
TEXT
  5
72F
100
AcDbEntity
  8
図面枠レイヤ
  6
CONTINUOUS
 62
     3
100
AcDbText
 10
306.1
 20
101.802292
 30
0.0
 40
3.6
  1
弁ゴム
 41
0.84
  7
EXCADSTD
 72
     5
 11
316.9
 21
101.802292
 31
0.0
100
AcDbText
  0
TEXT
  5
730
100
AcDbEntity
  8
図面枠レイヤ
  6
CONTINUOUS
 62
     3
100
AcDbText
 10
306.1
 20
106.82275
 30
0.0
 40
3.6
  1
補助スプリング
 41
0.84
  7
EXCADSTD
 72
     5
 11
331.299999
 21
106.82275
 31
0.0
100
AcDbText
  0
TEXT
  5
731
100
AcDbEntity
  8
図面枠レイヤ
  6
CONTINUOUS
 62
     3
100
AcDbText
 10
306.1
 20
111.843209
 30
0.0
 40
3.6
  1
ガイド
 41
0.84
  7
EXCADSTD
 72
     5
 11
316.9
 21
111.843209
 31
0.0
100
AcDbText
  0
TEXT
  5
732
100
AcDbEntity
  8
図面枠レイヤ
  6
CONTINUOUS
 62
     3
100
AcDbText
 10
306.1
 20
126.904584
 30
0.0
 40
3.6
  1
受圧板
 41
0.84
  7
EXCADSTD
 72
     5
 11
316.9
 21
126.904584
 31
0.0
100
AcDbText
  0
TEXT
  5
733
100
AcDbEntity
  8
図面枠レイヤ
  6
CONTINUOUS
 62
     3
100
AcDbText
 10
306.1
 20
131.925042
 30
0.0
 40
3.6
  1
ダイヤフラム
 41
0.84
  7
EXCADSTD
 72
     5
 11
327.699999
 21
131.925042
 31
0.0
100
AcDbText
  0
TEXT
  5
734
100
AcDbEntity
  8
図面枠レイヤ
  6
CONTINUOUS
 62
     3
100
AcDbText
 10
306.1
 20
136.9455
 30
0.0
 40
3.6
  1
スプリング座
 41
0.84
  7
EXCADSTD
 72
     5
 11
327.699999
 21
136.9455
 31
0.0
100
AcDbText
  0
TEXT
  5
735
100
AcDbEntity
  8
図面枠レイヤ
  6
CONTINUOUS
 62
     3
100
AcDbText
 10
306.1
 20
141.965959
 30
0.0
 40
3.6
  1
サラバネ座金付ナット
 41
0.84
  7
EXCADSTD
 72
     5
 11
342.099999
 21
141.965959
 31
0.0
100
AcDbText
  0
TEXT
  5
736
100
AcDbEntity
  8
図面枠レイヤ
  6
CONTINUOUS
 62
     3
100
AcDbText
 10
306.1
 20
146.986417
 30
0.0
 40
3.6
  1
スピンドル
 41
0.84
  7
EXCADSTD
 72
     5
 11
324.1
 21
146.986417
 31
0.0
100
AcDbText
  0
TEXT
  5
737
100
AcDbEntity
  8
図面枠レイヤ
  6
CONTINUOUS
 62
     3
100
AcDbText
 10
306.1
 20
152.006876
 30
0.0
 40
3.6
  1
調整スプリング
 41
0.84
  7
EXCADSTD
 72
     5
 11
331.299999
 21
152.006876
 31
0.0
100
AcDbText
  0
TEXT
  5
738
100
AcDbEntity
  8
図面枠レイヤ
  6
CONTINUOUS
 62
     3
100
AcDbText
 10
306.1
 20
157.027334
 30
0.0
 40
3.6
  1
スプリング押え
 41
0.84
  7
EXCADSTD
 72
     5
 11
331.299999
 21
157.027334
 31
0.0
100
AcDbText
  0
TEXT
  5
739
100
AcDbEntity
  8
図面枠レイヤ
  6
CONTINUOUS
 62
     3
100
AcDbText
 10
306.1
 20
162.047792
 30
0.0
 40
3.6
  1
調整ネジ
 41
0.84
  7
EXCADSTD
 72
     5
 11
320.5
 21
162.047792
 31
0.0
100
AcDbText
  0
TEXT
  5
73A
100
AcDbEntity
  8
図面枠レイヤ
  6
CONTINUOUS
 62
     3
100
AcDbText
 10
306.1
 20
167.068251
 30
0.0
 40
3.6
  1
六角ナット
 41
0.84
  7
EXCADSTD
 72
     5
 11
324.1
 21
167.068251
 31
0.0
100
AcDbText
  0
TEXT
  5
73B
100
AcDbEntity
  8
図面枠レイヤ
  6
CONTINUOUS
 62
     3
100
AcDbText
 10
306.1
 20
177.109167
 30
0.0
 40
3.6
  1
Ｏリング
 41
0.84
  7
EXCADSTD
 72
     5
 11
320.5
 21
177.109167
 31
0.0
100
AcDbText
  0
TEXT
  5
73C
100
AcDbEntity
  8
図面枠レイヤ
  6
CONTINUOUS
 62
     3
100
AcDbText
 10
306.1
 20
187.150084
 30
0.0
 40
3.6
  1
六角ボルト
 41
0.84
  7
EXCADSTD
 72
     5
 11
324.1
 21
187.150084
 31
0.0
100
AcDbText
  0
TEXT
  5
73D
100
AcDbEntity
  8
図面枠レイヤ
  6
CONTINUOUS
 62
     3
100
AcDbText
 10
306.1
 20
192.170542
 30
0.0
 40
3.6
  1
防水キャップ
 41
0.84
  7
EXCADSTD
 72
     5
 11
327.699999
 21
192.170542
 31
0.0
100
AcDbText
  0
TEXT
  5
73E
100
AcDbEntity
  8
図面枠レイヤ
  6
CONTINUOUS
 62
     3
100
AcDbText
 10
306.1
 20
197.191001
 30
0.0
 40
3.6
  1
サラバネ座金付ナット
 41
0.84
  7
EXCADSTD
 72
     5
 11
342.099999
 21
197.191001
 31
0.0
100
AcDbText
  0
TEXT
  5
73F
100
AcDbEntity
  8
図面枠レイヤ
  6
CONTINUOUS
 62
     3
100
AcDbText
 10
306.1
 20
212.252376
 30
0.0
 40
3.6
  1
ネームプレート
 41
0.84
  7
EXCADSTD
 72
     5
 11
331.299999
 21
212.252376
 31
0.0
100
AcDbText
  0
TEXT
  5
740
100
AcDbEntity
  8
図面枠レイヤ
  6
CONTINUOUS
 62
     3
100
AcDbText
 10
306.1
 20
217.272834
 30
0.0
 40
3.6
  1
インサート金具
 41
0.84
  7
EXCADSTD
 72
     5
 11
331.299999
 21
217.272834
 31
0.0
100
AcDbText
  0
TEXT
  5
741
100
AcDbEntity
  8
図面枠レイヤ
  6
CONTINUOUS
 62
     3
100
AcDbText
 10
306.1
 20
222.293293
 30
0.0
 40
3.6
  1
スペーサーリング
 41
0.84
  7
EXCADSTD
 72
     5
 11
334.899999
 21
222.293293
 31
0.0
100
AcDbText
  0
TEXT
  5
742
100
AcDbEntity
  8
図面枠レイヤ
  6
CONTINUOUS
 62
     3
100
AcDbText
 10
306.1
 20
227.313751
 30
0.0
 40
3.6
  1
ガイドキャップ
 41
0.84
  7
EXCADSTD
 72
     5
 11
331.299999
 21
227.313751
 31
0.0
100
AcDbText
  0
TEXT
  5
743
100
AcDbEntity
  8
図面枠レイヤ
  6
CONTINUOUS
 62
     3
100
AcDbText
 10
345.5
 20
71.7
 30
0.0
 40
3.6
  1
１
 41
0.84
  7
EXCADSTD
 72
     5
 11
348.38
 21
71.7
 31
0.0
100
AcDbText
  0
TEXT
  5
744
100
AcDbEntity
  8
図面枠レイヤ
  6
CONTINUOUS
 62
     3
100
AcDbText
 10
345.5
 20
76.7
 30
0.0
 40
3.6
  1
１
 41
0.84
  7
EXCADSTD
 72
     5
 11
348.38
 21
76.7
 31
0.0
100
AcDbText
  0
TEXT
  5
745
100
AcDbEntity
  8
図面枠レイヤ
  6
CONTINUOUS
 62
     3
100
AcDbText
 10
345.5
 20
81.720458
 30
0.0
 40
3.6
  1
１
 41
0.84
  7
EXCADSTD
 72
     5
 11
348.38
 21
81.720458
 31
0.0
100
AcDbText
  0
TEXT
  5
746
100
AcDbEntity
  8
図面枠レイヤ
  6
CONTINUOUS
 62
     3
100
AcDbText
 10
345.5
 20
86.740917
 30
0.0
 40
3.6
  1
１
 41
0.84
  7
EXCADSTD
 72
     5
 11
348.38
 21
86.740917
 31
0.0
100
AcDbText
  0
TEXT
  5
747
100
AcDbEntity
  8
図面枠レイヤ
  6
CONTINUOUS
 62
     3
100
AcDbText
 10
345.5
 20
91.761375
 30
0.0
 40
3.6
  1
１
 41
0.84
  7
EXCADSTD
 72
     5
 11
348.38
 21
91.761375
 31
0.0
100
AcDbText
  0
TEXT
  5
748
100
AcDbEntity
  8
図面枠レイヤ
  6
CONTINUOUS
 62
     3
100
AcDbText
 10
345.5
 20
96.781833
 30
0.0
 40
3.6
  1
１
 41
0.84
  7
EXCADSTD
 72
     5
 11
348.38
 21
96.781833
 31
0.0
100
AcDbText
  0
TEXT
  5
749
100
AcDbEntity
  8
図面枠レイヤ
  6
CONTINUOUS
 62
     3
100
AcDbText
 10
345.5
 20
101.802292
 30
0.0
 40
3.6
  1
１
 41
0.84
  7
EXCADSTD
 72
     5
 11
348.38
 21
101.802292
 31
0.0
100
AcDbText
  0
TEXT
  5
74A
100
AcDbEntity
  8
図面枠レイヤ
  6
CONTINUOUS
 62
     3
100
AcDbText
 10
345.5
 20
106.82275
 30
0.0
 40
3.6
  1
１
 41
0.84
  7
EXCADSTD
 72
     5
 11
348.38
 21
106.82275
 31
0.0
100
AcDbText
  0
TEXT
  5
74B
100
AcDbEntity
  8
図面枠レイヤ
  6
CONTINUOUS
 62
     3
100
AcDbText
 10
345.5
 20
111.843209
 30
0.0
 40
3.6
  1
１
 41
0.84
  7
EXCADSTD
 72
     5
 11
348.38
 21
111.843209
 31
0.0
100
AcDbText
  0
TEXT
  5
74C
100
AcDbEntity
  8
図面枠レイヤ
  6
CONTINUOUS
 62
     3
100
AcDbText
 10
345.5
 20
126.904584
 30
0.0
 40
3.6
  1
１
 41
0.84
  7
EXCADSTD
 72
     5
 11
348.38
 21
126.904584
 31
0.0
100
AcDbText
  0
TEXT
  5
74D
100
AcDbEntity
  8
図面枠レイヤ
  6
CONTINUOUS
 62
     3
100
AcDbText
 10
345.5
 20
131.925042
 30
0.0
 40
3.6
  1
１
 41
0.84
  7
EXCADSTD
 72
     5
 11
348.38
 21
131.925042
 31
0.0
100
AcDbText
  0
TEXT
  5
74E
100
AcDbEntity
  8
図面枠レイヤ
  6
CONTINUOUS
 62
     3
100
AcDbText
 10
345.5
 20
136.9455
 30
0.0
 40
3.6
  1
１
 41
0.84
  7
EXCADSTD
 72
     5
 11
348.38
 21
136.9455
 31
0.0
100
AcDbText
  0
TEXT
  5
74F
100
AcDbEntity
  8
図面枠レイヤ
  6
CONTINUOUS
 62
     3
100
AcDbText
 10
345.5
 20
141.965959
 30
0.0
 40
3.6
  1
１
 41
0.84
  7
EXCADSTD
 72
     5
 11
348.38
 21
141.965959
 31
0.0
100
AcDbText
  0
TEXT
  5
750
100
AcDbEntity
  8
図面枠レイヤ
  6
CONTINUOUS
 62
     3
100
AcDbText
 10
345.5
 20
146.986417
 30
0.0
 40
3.6
  1
１
 41
0.84
  7
EXCADSTD
 72
     5
 11
348.38
 21
146.986417
 31
0.0
100
AcDbText
  0
TEXT
  5
751
100
AcDbEntity
  8
図面枠レイヤ
  6
CONTINUOUS
 62
     3
100
AcDbText
 10
345.5
 20
152.006876
 30
0.0
 40
3.6
  1
１
 41
0.84
  7
EXCADSTD
 72
     5
 11
348.38
 21
152.006876
 31
0.0
100
AcDbText
  0
TEXT
  5
752
100
AcDbEntity
  8
図面枠レイヤ
  6
CONTINUOUS
 62
     3
100
AcDbText
 10
345.5
 20
157.027334
 30
0.0
 40
3.6
  1
１
 41
0.84
  7
EXCADSTD
 72
     5
 11
348.38
 21
157.027334
 31
0.0
100
AcDbText
  0
TEXT
  5
753
100
AcDbEntity
  8
図面枠レイヤ
  6
CONTINUOUS
 62
     3
100
AcDbText
 10
345.5
 20
162.047792
 30
0.0
 40
3.6
  1
１
 41
0.84
  7
EXCADSTD
 72
     5
 11
348.38
 21
162.047792
 31
0.0
100
AcDbText
  0
TEXT
  5
754
100
AcDbEntity
  8
図面枠レイヤ
  6
CONTINUOUS
 62
     3
100
AcDbText
 10
345.5
 20
167.068251
 30
0.0
 40
3.6
  1
１
 41
0.84
  7
EXCADSTD
 72
     5
 11
348.38
 21
167.068251
 31
0.0
100
AcDbText
  0
TEXT
  5
755
100
AcDbEntity
  8
図面枠レイヤ
  6
CONTINUOUS
 62
     3
100
AcDbText
 10
345.5
 20
187.150084
 30
0.0
 40
3.6
  1
８
 41
0.84
  7
EXCADSTD
 72
     5
 11
348.38
 21
187.150084
 31
0.0
100
AcDbText
  0
TEXT
  5
756
100
AcDbEntity
  8
図面枠レイヤ
  6
CONTINUOUS
 62
     3
100
AcDbText
 10
345.5
 20
192.170542
 30
0.0
 40
3.6
  1
１
 41
0.84
  7
EXCADSTD
 72
     5
 11
348.38
 21
192.170542
 31
0.0
100
AcDbText
  0
TEXT
  5
757
100
AcDbEntity
  8
図面枠レイヤ
  6
CONTINUOUS
 62
     3
100
AcDbText
 10
345.5
 20
197.191001
 30
0.0
 40
3.6
  1
８
 41
0.84
  7
EXCADSTD
 72
     5
 11
348.38
 21
197.191001
 31
0.0
100
AcDbText
  0
TEXT
  5
758
100
AcDbEntity
  8
図面枠レイヤ
  6
CONTINUOUS
 62
     3
100
AcDbText
 10
345.5
 20
212.252376
 30
0.0
 40
3.6
  1
１
 41
0.84
  7
EXCADSTD
 72
     5
 11
348.38
 21
212.252376
 31
0.0
100
AcDbText
  0
TEXT
  5
759
100
AcDbEntity
  8
図面枠レイヤ
  6
CONTINUOUS
 62
     3
100
AcDbText
 10
345.5
 20
217.272834
 30
0.0
 40
3.6
  1
１
 41
0.84
  7
EXCADSTD
 72
     5
 11
348.38
 21
217.272834
 31
0.0
100
AcDbText
  0
TEXT
  5
75A
100
AcDbEntity
  8
図面枠レイヤ
  6
CONTINUOUS
 62
     3
100
AcDbText
 10
345.5
 20
222.293293
 30
0.0
 40
3.6
  1
１
 41
0.84
  7
EXCADSTD
 72
     5
 11
348.38
 21
222.293293
 31
0.0
100
AcDbText
  0
TEXT
  5
75B
100
AcDbEntity
  8
図面枠レイヤ
  6
CONTINUOUS
 62
     3
100
AcDbText
 10
345.5
 20
227.313751
 30
0.0
 40
3.6
  1
１
 41
0.84
  7
EXCADSTD
 72
     5
 11
348.38
 21
227.313751
 31
0.0
100
AcDbText
  0
TEXT
  5
75C
100
AcDbEntity
  8
図面枠レイヤ
  6
CONTINUOUS
 62
     3
100
AcDbText
 10
374.271618
 20
142.091411
 30
0.0
 40
3.6
  1
M12
 41
0.694444
  7
EXCADSTD
 72
     5
 11
380.741868
 21
142.091411
 31
0.0
100
AcDbText
  0
TEXT
  5
75D
100
AcDbEntity
  8
図面枠レイヤ
  6
CONTINUOUS
 62
     3
100
AcDbText
 10
373.523275
 20
197.171642
 30
0.0
 40
3.6
  1
M8
 41
0.694444
  7
EXCADSTD
 72
     5
 11
377.523275
 21
197.171642
 31
0.0
100
AcDbText
  0
TEXT
  5
75E
100
AcDbEntity
  8
図面枠レイヤ
  6
CONTINUOUS
 62
     3
100
AcDbText
 10
345.5
 20
172.088709
 30
0.0
 40
3.6
  1
１
 41
0.84
  7
EXCADSTD
 72
     5
 11
348.38
 21
172.088709
 31
0.0
100
AcDbText
  0
TEXT
  5
75F
100
AcDbEntity
  8
図面枠レイヤ
  6
CONTINUOUS
 62
     3
100
AcDbText
 10
306.1
 20
172.088709
 30
0.0
 40
3.6
  1
ストレーナパッキン
 41
0.84
  7
EXCADSTD
 72
     5
 11
338.499999
 21
172.088709
 31
0.0
100
AcDbText
  0
TEXT
  5
760
100
AcDbEntity
  8
図面枠レイヤ
  6
CONTINUOUS
 62
     3
100
AcDbText
 10
345.5
 20
182.129626
 30
0.0
 40
3.6
  1
１
 41
0.84
  7
EXCADSTD
 72
     5
 11
348.38
 21
182.129626
 31
0.0
100
AcDbText
  0
TEXT
  5
761
100
AcDbEntity
  8
図面枠レイヤ
  6
CONTINUOUS
 62
     3
100
AcDbText
 10
306.1
 20
182.129626
 30
0.0
 40
3.6
  1
ストレーナ
 41
0.84
  7
EXCADSTD
 72
     5
 11
324.1
 21
182.129626
 31
0.0
100
AcDbText
  0
TEXT
  5
762
100
AcDbEntity
  8
図面枠レイヤ
  6
CONTINUOUS
 62
     3
100
AcDbText
 10
306.1
 20
116.863667
 30
0.0
 40
3.6
  1
連動子
 41
0.84
  7
EXCADSTD
 72
     5
 11
316.9
 21
116.863667
 31
0.0
100
AcDbText
  0
TEXT
  5
763
100
AcDbEntity
  8
図面枠レイヤ
  6
CONTINUOUS
 62
     3
100
AcDbText
 10
345.5
 20
116.863667
 30
0.0
 40
3.6
  1
１
 41
0.84
  7
EXCADSTD
 72
     5
 11
348.38
 21
116.863667
 31
0.0
100
AcDbText
  0
TEXT
  5
764
100
AcDbEntity
  8
図面枠レイヤ
  6
CONTINUOUS
 62
     3
100
AcDbText
 10
306.1
 20
121.884125
 30
0.0
 40
3.6
  1
Ｏリング
 41
0.84
  7
EXCADSTD
 72
     5
 11
320.5
 21
121.884125
 31
0.0
100
AcDbText
  0
TEXT
  5
765
100
AcDbEntity
  8
図面枠レイヤ
  6
CONTINUOUS
 62
     3
100
AcDbText
 10
345.5
 20
121.884125
 30
0.0
 40
3.6
  1
２
 41
0.84
  7
EXCADSTD
 72
     5
 11
348.38
 21
121.884125
 31
0.0
100
AcDbText
  0
TEXT
  5
766
100
AcDbEntity
  8
図面枠レイヤ
  6
CONTINUOUS
 62
     3
100
AcDbText
 10
306.1
 20
202.211459
 30
0.0
 40
3.6
  1
カバーストレーナ
 41
0.84
  7
EXCADSTD
 72
     5
 11
334.899999
 21
202.211459
 31
0.0
100
AcDbText
  0
TEXT
  5
767
100
AcDbEntity
  8
図面枠レイヤ
  6
CONTINUOUS
 62
     3
100
AcDbText
 10
306.1
 20
207.231918
 30
0.0
 40
3.6
  1
調整用波形座金
 41
0.84
  7
EXCADSTD
 72
     5
 11
331.299999
 21
207.231918
 31
0.0
100
AcDbText
  0
TEXT
  5
768
100
AcDbEntity
  8
図面枠レイヤ
  6
CONTINUOUS
 62
     3
100
AcDbText
 10
345.5
 20
202.211459
 30
0.0
 40
3.6
  1
１
 41
0.84
  7
EXCADSTD
 72
     5
 11
348.38
 21
202.211459
 31
0.0
100
AcDbText
  0
TEXT
  5
769
100
AcDbEntity
  8
図面枠レイヤ
  6
CONTINUOUS
 62
     3
100
AcDbText
 10
345.5
 20
207.231918
 30
0.0
 40
3.6
  1
１
 41
0.84
  7
EXCADSTD
 72
     5
 11
348.38
 21
207.231918
 31
0.0
100
AcDbText
  0
TEXT
  5
76A
100
AcDbEntity
  8
図面枠レイヤ
  6
CONTINUOUS
 62
     3
100
AcDbText
 10
373.376462
 20
207.533197
 30
0.0
 40
3.6
  1
3種 10
 41
0.806667
  7
EXCADSTD
 72
     5
 11
388.376462
 21
207.533197
 31
0.0
100
AcDbText
  0
TEXT
  5
76B
100
AcDbEntity
  8
図面枠レイヤ
  6
CONTINUOUS
 62
     3
100
AcDbText
 10
306.1
 20
232.334209
 30
0.0
 40
3.6
  1
打込ネジ鋲
 41
0.84
  7
EXCADSTD
 72
     5
 11
324.1
 21
232.334209
 31
0.0
100
AcDbText
  0
TEXT
  5
76C
100
AcDbEntity
  8
図面枠レイヤ
  6
CONTINUOUS
 62
     3
100
AcDbText
 10
306.1
 20
237.354668
 30
0.0
 40
3.6
  1
大臣認定票
 41
0.84
  7
EXCADSTD
 72
     5
 11
324.1
 21
237.354668
 31
0.0
100
AcDbText
  0
TEXT
  5
76D
100
AcDbEntity
  8
図面枠レイヤ
  6
CONTINUOUS
 62
     3
100
AcDbText
 10
345.5
 20
232.334209
 30
0.0
 40
3.6
  1
２
 41
0.84
  7
EXCADSTD
 72
     5
 11
348.38
 21
232.334209
 31
0.0
100
AcDbText
  0
TEXT
  5
76E
100
AcDbEntity
  8
図面枠レイヤ
  6
CONTINUOUS
 62
     3
100
AcDbText
 10
345.5
 20
237.354668
 30
0.0
 40
3.6
  1
１
 41
0.84
  7
EXCADSTD
 72
     5
 11
348.38
 21
237.354668
 31
0.0
100
AcDbText
  0
TEXT
  5
76F
100
AcDbEntity
  8
図面枠レイヤ
  6
CONTINUOUS
 62
     3
100
AcDbText
 10
354.334291
 20
76.691003
 30
0.0
 40
3.6
  1
ADC12
 41
0.597222
  7
EXCADSTD
 72
     5
 11
365.084291
 21
76.691003
 31
0.0
100
AcDbText
  0
TEXT
  5
770
100
AcDbEntity
  8
図面枠レイヤ
  6
CONTINUOUS
 62
     3
100
AcDbText
 10
354.334291
 20
71.677962
 30
0.0
 40
3.6
  1
FCD-S
 41
0.597222
  7
EXCADSTD
 72
     5
 11
365.084291
 21
71.677962
 31
0.0
100
AcDbText
  0
TEXT
  5
771
100
AcDbEntity
  8
図面枠レイヤ
  6
CONTINUOUS
 62
     3
100
AcDbText
 10
354.334291
 20
81.56469
 30
0.0
 40
3.6
  1
C3771B
 41
0.597222
  7
EXCADSTD
 72
     5
 11
367.234291
 21
81.56469
 31
0.0
100
AcDbText
  0
TEXT
  5
772
100
AcDbEntity
  8
図面枠レイヤ
  6
CONTINUOUS
 62
     3
100
AcDbText
 10
354.334291
 20
86.836587
 30
0.0
 40
3.6
  1
SUS304
 41
0.597222
  7
EXCADSTD
 72
     5
 11
367.234291
 21
86.836587
 31
0.0
100
AcDbText
  0
TEXT
  5
773
100
AcDbEntity
  8
図面枠レイヤ
  6
CONTINUOUS
 62
     3
100
AcDbText
 10
354.334291
 20
91.807158
 30
0.0
 40
3.6
  1
C3604B
 41
0.597222
  7
EXCADSTD
 72
     5
 11
367.234291
 21
91.807158
 31
0.0
100
AcDbText
  0
TEXT
  5
774
100
AcDbEntity
  8
図面枠レイヤ
  6
CONTINUOUS
 62
     3
100
AcDbText
 10
354.334291
 20
96.636587
 30
0.0
 40
3.6
  1
SUS304
 41
0.597222
  7
EXCADSTD
 72
     5
 11
367.234291
 21
96.636587
 31
0.0
100
AcDbText
  0
TEXT
  5
775
100
AcDbEntity
  8
図面枠レイヤ
  6
CONTINUOUS
 62
     3
100
AcDbText
 10
354.334291
 20
101.721757
 30
0.0
 40
3.6
  1
NBR
 41
0.597222
  7
EXCADSTD
 72
     5
 11
359.898706
 21
101.721757
 31
0.0
100
AcDbText
  0
TEXT
  5
776
100
AcDbEntity
  8
図面枠レイヤ
  6
CONTINUOUS
 62
     3
100
AcDbText
 10
354.334291
 20
106.823314
 30
0.0
 40
3.6
  1
SUS304
 41
0.597222
  7
EXCADSTD
 72
     5
 11
367.234291
 21
106.823314
 31
0.0
100
AcDbText
  0
TEXT
  5
777
100
AcDbEntity
  8
図面枠レイヤ
  6
CONTINUOUS
 62
     3
100
AcDbText
 10
354.334291
 20
111.808484
 30
0.0
 40
3.6
  1
C3604B
 41
0.597222
  7
EXCADSTD
 72
     5
 11
367.234291
 21
111.808484
 31
0.0
100
AcDbText
  0
TEXT
  5
778
100
AcDbEntity
  8
図面枠レイヤ
  6
CONTINUOUS
 62
     3
100
AcDbText
 10
354.334291
 20
116.695211
 30
0.0
 40
3.6
  1
C3604B
 41
0.597222
  7
EXCADSTD
 72
     5
 11
367.234291
 21
116.695211
 31
0.0
100
AcDbText
  0
TEXT
  5
779
100
AcDbEntity
  8
図面枠レイヤ
  6
CONTINUOUS
 62
     3
100
AcDbText
 10
354.324131
 20
121.734401
 30
0.0
 40
3.6
  1
NBR
 41
0.597222
  7
EXCADSTD
 72
     5
 11
359.888547
 21
121.734401
 31
0.0
100
AcDbText
  0
TEXT
  5
77A
100
AcDbEntity
  8
図面枠レイヤ
  6
CONTINUOUS
 62
     3
100
AcDbText
 10
354.334291
 20
126.867108
 30
0.0
 40
3.6
  1
SPCC
 41
0.597222
  7
EXCADSTD
 72
     5
 11
362.217051
 21
126.867108
 31
0.0
100
AcDbText
  0
TEXT
  5
77B
100
AcDbEntity
  8
図面枠レイヤ
  6
CONTINUOUS
 62
     3
100
AcDbText
 10
354.334291
 20
131.709809
 30
0.0
 40
3.6
  1
NBR
 41
0.597222
  7
EXCADSTD
 72
     5
 11
359.898706
 21
131.709809
 31
0.0
100
AcDbText
  0
TEXT
  5
77C
100
AcDbEntity
  8
図面枠レイヤ
  6
CONTINUOUS
 62
     3
100
AcDbText
 10
354.334291
 20
136.667108
 30
0.0
 40
3.6
  1
SPCC
 41
0.597222
  7
EXCADSTD
 72
     5
 11
362.217051
 21
136.667108
 31
0.0
100
AcDbText
  0
TEXT
  5
77D
100
AcDbEntity
  8
図面枠レイヤ
  6
CONTINUOUS
 62
     3
100
AcDbText
 10
354.334291
 20
141.824407
 30
0.0
 40
3.6
  1
SS400
 41
0.597222
  7
EXCADSTD
 72
     5
 11
365.084291
 21
141.824407
 31
0.0
100
AcDbText
  0
TEXT
  5
77E
100
AcDbEntity
  8
図面枠レイヤ
  6
CONTINUOUS
 62
     3
100
AcDbText
 10
354.334291
 20
146.781706
 30
0.0
 40
3.6
  1
SUS303
 41
0.597222
  7
EXCADSTD
 72
     5
 11
367.234291
 21
146.781706
 31
0.0
100
AcDbText
  0
TEXT
  5
77F
100
AcDbEntity
  8
図面枠レイヤ
  6
CONTINUOUS
 62
     3
100
AcDbText
 10
354.334291
 20
151.639005
 30
0.0
 40
3.6
  1
SUP4
 41
0.597222
  7
EXCADSTD
 72
     5
 11
362.217051
 21
151.639005
 31
0.0
100
AcDbText
  0
TEXT
  5
780
100
AcDbEntity
  8
図面枠レイヤ
  6
CONTINUOUS
 62
     3
100
AcDbText
 10
354.334291
 20
156.896304
 30
0.0
 40
3.6
  1
SPCC
 41
0.597222
  7
EXCADSTD
 72
     5
 11
362.217051
 21
156.896304
 31
0.0
100
AcDbText
  0
TEXT
  5
781
100
AcDbEntity
  8
図面枠レイヤ
  6
CONTINUOUS
 62
     3
100
AcDbText
 10
354.334291
 20
161.925733
 30
0.0
 40
3.6
  1
SUS304
 41
0.597222
  7
EXCADSTD
 72
     5
 11
367.234291
 21
161.925733
 31
0.0
100
AcDbText
  0
TEXT
  5
782
100
AcDbEntity
  8
図面枠レイヤ
  6
CONTINUOUS
 62
     3
100
AcDbText
 10
354.334291
 20
166.783032
 30
0.0
 40
3.6
  1
SS400
 41
0.597222
  7
EXCADSTD
 72
     5
 11
365.084291
 21
166.783032
 31
0.0
100
AcDbText
  0
TEXT
  5
783
100
AcDbEntity
  8
図面枠レイヤ
  6
CONTINUOUS
 62
     3
100
AcDbText
 10
354.334291
 20
171.669759
 30
0.0
 40
3.6
  1
NBR
 41
0.597222
  7
EXCADSTD
 72
     5
 11
359.898706
 21
171.669759
 31
0.0
100
AcDbText
  0
TEXT
  5
784
100
AcDbEntity
  8
図面枠レイヤ
  6
CONTINUOUS
 62
     3
100
AcDbText
 10
354.334291
 20
176.969759
 30
0.0
 40
3.6
  1
NBR
 41
0.597222
  7
EXCADSTD
 72
     5
 11
359.898706
 21
176.969759
 31
0.0
100
AcDbText
  0
TEXT
  5
785
100
AcDbEntity
  8
図面枠レイヤ
  6
CONTINUOUS
 62
     3
100
AcDbText
 10
345.5
 20
177.109167
 30
0.0
 40
3.6
  1
１
 41
0.84
  7
EXCADSTD
 72
     5
 11
348.38
 21
177.109167
 31
0.0
100
AcDbText
  0
TEXT
  5
786
100
AcDbEntity
  8
図面枠レイヤ
  6
CONTINUOUS
 62
     3
100
AcDbText
 10
354.334291
 20
181.725733
 30
0.0
 40
3.6
  1
SUS304
 41
0.597222
  7
EXCADSTD
 72
     5
 11
367.234291
 21
181.725733
 31
0.0
100
AcDbText
  0
TEXT
  5
787
100
AcDbEntity
  8
図面枠レイヤ
  6
CONTINUOUS
 62
     3
100
AcDbText
 10
354.334291
 20
186.756486
 30
0.0
 40
3.6
  1
SS400
 41
0.597222
  7
EXCADSTD
 72
     5
 11
365.084291
 21
186.756486
 31
0.0
100
AcDbText
  0
TEXT
  5
788
100
AcDbEntity
  8
図面枠レイヤ
  6
CONTINUOUS
 62
     3
100
AcDbText
 10
354.261838
 20
191.930842
 30
0.0
 40
3.054701
  1
軟質塩化ビニル
 41
0.705
  7
EXCADSTD
 72
     5
 11
372.208208
 21
191.930842
 31
0.0
100
AcDbText
  0
TEXT
  5
789
100
AcDbEntity
  8
図面枠レイヤ
  6
CONTINUOUS
 62
     3
100
AcDbText
 10
354.334291
 20
196.843214
 30
0.0
 40
3.6
  1
SS400
 41
0.597222
  7
EXCADSTD
 72
     5
 11
365.084291
 21
196.843214
 31
0.0
100
AcDbText
  0
TEXT
  5
78A
100
AcDbEntity
  8
図面枠レイヤ
  6
CONTINUOUS
 62
     3
100
AcDbText
 10
354.334291
 20
201.773735
 30
0.0
 40
3.6
  1
SUS304-W1/2H
 41
0.422806
  7
EXCADSTD
 72
     5
 11
372.599527
 21
201.773735
 31
0.0
100
AcDbText
  0
TEXT
  5
78B
100
AcDbEntity
  8
図面枠レイヤ
  6
CONTINUOUS
 62
     3
100
AcDbText
 10
353.434072
 20
206.927015
 30
0.0
 40
3.6
  1
バネ用鋼
 41
1.003333
  7
EXCADSTD
 72
     5
 11
370.634072
 21
206.927015
 31
0.0
100
AcDbText
  0
TEXT
  5
78C
100
AcDbEntity
  8
図面枠レイヤ
  6
CONTINUOUS
 62
     3
100
AcDbText
 10
354.334291
 20
211.815111
 30
0.0
 40
3.6
  1
A1100P
 41
0.597222
  7
EXCADSTD
 72
     5
 11
367.234291
 21
211.815111
 31
0.0
100
AcDbText
  0
TEXT
  5
78D
100
AcDbEntity
  8
図面枠レイヤ
  6
CONTINUOUS
 62
     3
100
AcDbText
 10
354.334291
 20
216.77241
 30
0.0
 40
3.6
  1
C3604B
 41
0.597222
  7
EXCADSTD
 72
     5
 11
367.234291
 21
216.77241
 31
0.0
100
AcDbText
  0
TEXT
  5
78E
100
AcDbEntity
  8
図面枠レイヤ
  6
CONTINUOUS
 62
     3
100
AcDbText
 10
354.324131
 20
221.693445
 30
0.0
 40
3.6
  1
C3604B
 41
0.597222
  7
EXCADSTD
 72
     5
 11
367.224132
 21
221.693445
 31
0.0
100
AcDbText
  0
TEXT
  5
78F
100
AcDbEntity
  8
図面枠レイヤ
  6
CONTINUOUS
 62
     3
100
AcDbText
 10
354.334291
 20
226.759137
 30
0.0
 40
3.6
  1
C3604B
 41
0.597222
  7
EXCADSTD
 72
     5
 11
367.234291
 21
226.759137
 31
0.0
100
AcDbText
  0
TEXT
  5
790
100
AcDbEntity
  8
図面枠レイヤ
  6
CONTINUOUS
 62
     3
100
AcDbText
 10
353.534291
 20
231.689891
 30
0.0
 40
3.6
  1
C2700W-1/8H
 41
0.457672
  7
EXCADSTD
 72
     5
 11
371.658106
 21
231.689891
 31
0.0
100
AcDbText
  0
TEXT
  5
791
100
AcDbEntity
  8
図面枠レイヤ
  6
CONTINUOUS
 62
     3
100
AcDbText
 10
353.534291
 20
236.64719
 30
0.0
 40
3.6
  1
A1100P
 41
0.597222
  7
EXCADSTD
 72
     5
 11
366.434291
 21
236.64719
 31
0.0
100
AcDbText
  0
LINE
  5
792
100
AcDbEntity
  8
図面枠レイヤ
  6
CONTINUOUS
 62
     1
100
AcDbLine
 10
292.4
 20
276.0
 30
0.0
 11
402.0
 21
276.0
 31
0.0
  0
LINE
  5
793
100
AcDbEntity
  8
図面枠レイヤ
  6
CONTINUOUS
 62
     1
100
AcDbLine
 10
292.4
 20
66.0
 30
0.0
 11
292.4
 21
276.0
 31
0.0
  0
LINE
  5
794
100
AcDbEntity
  8
図面枠レイヤ
  6
CONTINUOUS
 62
     1
100
AcDbLine
 10
302.4
 20
276.0
 30
0.0
 11
302.4
 21
66.0
 31
0.0
  0
LINE
  5
795
100
AcDbEntity
  8
図面枠レイヤ
  6
CONTINUOUS
 62
     1
100
AcDbLine
 10
342.4
 20
276.0
 30
0.0
 11
342.4
 21
66.0
 31
0.0
  0
LINE
  5
796
100
AcDbEntity
  8
図面枠レイヤ
  6
CONTINUOUS
 62
     1
100
AcDbLine
 10
352.4
 20
276.0
 30
0.0
 11
352.4
 21
66.0
 31
0.0
  0
LINE
  5
797
100
AcDbEntity
  8
図面枠レイヤ
  6
CONTINUOUS
 62
     1
100
AcDbLine
 10
372.4
 20
276.0
 30
0.0
 11
372.4
 21
66.0
 31
0.0
  0
TEXT
  5
798
100
AcDbEntity
  8
図面枠レイヤ
  6
CONTINUOUS
 62
     3
100
AcDbText
 10
293.83
 20
271.62
 30
0.0
 40
3.6
  1
４１
 41
0.84
  7
EXCADSTD
 72
     5
 11
300.42952
 21
271.62
 31
0.0
100
AcDbText
  0
POLYLINE
  5
799
100
AcDbEntity
  8
図面枠レイヤ
  6
CONTINUOUS
 62
     1
100
AcDb2dPolyline
 66
     1
 10
0.0
 20
0.0
 30
0.0
 70
   128
  0
VERTEX
  5
79A
100
AcDbEntity
  8
図面枠レイヤ
  6
CONTINUOUS
 62
     1
100
AcDbVertex
100
AcDb2dVertex
 10
153.4
 20
119.512549
 30
0.0
  0
VERTEX
  5
79B
100
AcDbEntity
  8
図面枠レイヤ
  6
CONTINUOUS
 62
     1
100
AcDbVertex
100
AcDb2dVertex
 10
191.240826
 20
148.633028
 30
0.0
  0
SEQEND
  5
79C
100
AcDbEntity
  8
図面枠レイヤ
  6
CONTINUOUS
 62
     1
  0
LINE
  5
79D
100
AcDbEntity
  8
図面枠レイヤ
  6
CONTINUOUS
 62
     1
100
AcDbLine
 10
154.436284
 20
120.625481
 30
0.0
 11
153.4
 21
119.512549
 31
0.0
  0
LINE
  5
79E
100
AcDbEntity
  8
図面枠レイヤ
  6
CONTINUOUS
 62
     1
100
AcDbLine
 10
153.4
 20
119.512549
 30
0.0
 11
154.741219
 21
120.22923
 31
0.0
  0
POLYLINE
  5
79F
100
AcDbEntity
  8
図面枠レイヤ
  6
CONTINUOUS
 62
     1
100
AcDb2dPolyline
 66
     1
 10
0.0
 20
0.0
 30
0.0
 70
   128
  0
VERTEX
  5
7A0
100
AcDbEntity
  8
図面枠レイヤ
  6
CONTINUOUS
 62
     1
100
AcDbVertex
100
AcDb2dVertex
 10
165.41655
 20
117.371912
 30
0.0
  0
VERTEX
  5
7A1
100
AcDbEntity
  8
図面枠レイヤ
  6
CONTINUOUS
 62
     1
100
AcDbVertex
100
AcDb2dVertex
 10
190.522938
 20
120.072245
 30
0.0
  0
SEQEND
  5
7A2
100
AcDbEntity
  8
図面枠レイヤ
  6
CONTINUOUS
 62
     1
  0
LINE
  5
7A3
100
AcDbEntity
  8
図面枠レイヤ
  6
CONTINUOUS
 62
     1
100
AcDbLine
 10
166.881214
 20
117.780886
 30
0.0
 11
165.41655
 21
117.371912
 31
0.0
  0
LINE
  5
7A4
100
AcDbEntity
  8
図面枠レイヤ
  6
CONTINUOUS
 62
     1
100
AcDbLine
 10
165.41655
 20
117.371912
 30
0.0
 11
166.934683
 21
117.283754
 31
0.0
  0
CIRCLE
  5
7A5
100
AcDbEntity
  8
図面枠レイヤ
  6
CONTINUOUS
 62
     1
100
AcDbCircle
 10
194.5
 20
120.5
 30
0.0
 40
4.0
  0
TEXT
  5
7A6
100
AcDbEntity
  8
図面枠レイヤ
  6
CONTINUOUS
 62
     3
100
AcDbText
 10
192.471573
 20
117.671573
 30
0.0
 40
5.656854
  1
１３
 41
0.42
  7
EXCADSTD
 72
     5
 11
197.656645
 21
117.671573
 31
0.0
100
AcDbText
  0
CIRCLE
  5
7A7
100
AcDbEntity
  8
図面枠レイヤ
  6
CONTINUOUS
 62
     1
100
AcDbCircle
 10
195.1
 20
140.0
 30
0.0
 40
4.0
  0
TEXT
  5
7A8
100
AcDbEntity
  8
図面枠レイヤ
  6
CONTINUOUS
 62
     3
100
AcDbText
 10
193.071573
 20
137.171573
 30
0.0
 40
5.656854
  1
２９
 41
0.42
  7
EXCADSTD
 72
     5
 11
198.256645
 21
137.171573
 31
0.0
100
AcDbText
  0
TEXT
  5
7A9
100
AcDbEntity
  8
図面枠レイヤ
  6
CONTINUOUS
 62
     3
100
AcDbText
 10
354.334291
 20
241.272146
 30
0.0
 40
3.6
  1
SS400
 41
0.597222
  7
EXCADSTD
 72
     5
 11
365.084291
 21
241.272146
 31
0.0
100
AcDbText
  0
TEXT
  5
7AA
100
AcDbEntity
  8
図面枠レイヤ
  6
CONTINUOUS
 62
     3
100
AcDbText
 10
306.1
 20
246.570542
 30
0.0
 40
3.6
  1
バネ座金
 41
0.84
  7
EXCADSTD
 72
     5
 11
320.5
 21
246.570542
 31
0.0
100
AcDbText
  0
TEXT
  5
7AB
100
AcDbEntity
  8
図面枠レイヤ
  6
CONTINUOUS
 62
     3
100
AcDbText
 10
354.334291
 20
246.572146
 30
0.0
 40
3.6
  1
SUP
 41
0.597222
  7
EXCADSTD
 72
     5
 11
359.898706
 21
246.572146
 31
0.0
100
AcDbText
  0
TEXT
  5
7AC
100
AcDbEntity
  8
図面枠レイヤ
  6
CONTINUOUS
 62
     3
100
AcDbText
 10
306.1
 20
241.670542
 30
0.0
 40
3.6
  1
六角ナット
 41
0.84
  7
EXCADSTD
 72
     5
 11
324.1
 21
241.670542
 31
0.0
100
AcDbText
  0
TEXT
  5
7AD
100
AcDbEntity
  8
図面枠レイヤ
  6
CONTINUOUS
 62
     3
100
AcDbText
 10
306.1
 20
251.670542
 30
0.0
 40
3.6
  1
六角ボルト
 41
0.84
  7
EXCADSTD
 72
     5
 11
324.1
 21
251.670542
 31
0.0
100
AcDbText
  0
TEXT
  5
7AE
100
AcDbEntity
  8
図面枠レイヤ
  6
CONTINUOUS
 62
     3
100
AcDbText
 10
354.334291
 20
251.672146
 30
0.0
 40
3.6
  1
SS400
 41
0.597222
  7
EXCADSTD
 72
     5
 11
365.084291
 21
251.672146
 31
0.0
100
AcDbText
  0
TEXT
  5
7AF
100
AcDbEntity
  8
図面枠レイヤ
  6
CONTINUOUS
 62
     3
100
AcDbText
 10
306.1
 20
256.570542
 30
0.0
 40
3.6
  1
平座金
 41
0.84
  7
EXCADSTD
 72
     5
 11
316.9
 21
256.570542
 31
0.0
100
AcDbText
  0
TEXT
  5
7B0
100
AcDbEntity
  8
図面枠レイヤ
  6
CONTINUOUS
 62
     3
100
AcDbText
 10
354.334291
 20
256.572146
 30
0.0
 40
3.6
  1
SS400
 41
0.597222
  7
EXCADSTD
 72
     5
 11
365.084291
 21
256.572146
 31
0.0
100
AcDbText
  0
TEXT
  5
7B1
100
AcDbEntity
  8
図面枠レイヤ
  6
CONTINUOUS
 62
     3
100
AcDbText
 10
306.1
 20
261.570542
 30
0.0
 40
3.6
  1
フランジ用パッキン
 41
0.84
  7
EXCADSTD
 72
     5
 11
338.499999
 21
261.570542
 31
0.0
100
AcDbText
  0
TEXT
  5
7B2
100
AcDbEntity
  8
図面枠レイヤ
  6
CONTINUOUS
 62
     3
100
AcDbText
 10
354.334291
 20
261.572146
 30
0.0
 40
3.6
  1
ﾉﾝｱｽﾍﾞｽﾄ
 41
0.597222
  7
EXCADSTD
 72
     5
 11
371.534292
 21
261.572146
 31
0.0
100
AcDbText
  0
TEXT
  5
7B3
100
AcDbEntity
  8
図面枠レイヤ
  6
CONTINUOUS
 62
     3
100
AcDbText
 10
345.5
 20
261.370542
 30
0.0
 40
3.6
  1
１
 41
0.84
  7
EXCADSTD
 72
     5
 11
348.38
 21
261.370542
 31
0.0
100
AcDbText
  0
TEXT
  5
7B4
100
AcDbEntity
  8
図面枠レイヤ
  6
CONTINUOUS
 62
     3
100
AcDbText
 10
345.5
 20
241.875126
 30
0.0
 40
3.6
  1
４
 41
0.84
  7
EXCADSTD
 72
     5
 11
348.38
 21
241.875126
 31
0.0
100
AcDbText
  0
TEXT
  5
7B5
100
AcDbEntity
  8
図面枠レイヤ
  6
CONTINUOUS
 62
     3
100
AcDbText
 10
345.5
 20
246.875126
 30
0.0
 40
3.6
  1
４
 41
0.84
  7
EXCADSTD
 72
     5
 11
348.38
 21
246.875126
 31
0.0
100
AcDbText
  0
TEXT
  5
7B6
100
AcDbEntity
  8
図面枠レイヤ
  6
CONTINUOUS
 62
     3
100
AcDbText
 10
345.5
 20
251.875126
 30
0.0
 40
3.6
  1
４
 41
0.84
  7
EXCADSTD
 72
     5
 11
348.38
 21
251.875126
 31
0.0
100
AcDbText
  0
TEXT
  5
7B7
100
AcDbEntity
  8
図面枠レイヤ
  6
CONTINUOUS
 62
     3
100
AcDbText
 10
306.1
 20
266.570542
 30
0.0
 40
3.6
  1
接続管
 41
0.84
  7
EXCADSTD
 72
     5
 11
316.9
 21
266.570542
 31
0.0
100
AcDbText
  0
TEXT
  5
7B8
100
AcDbEntity
  8
図面枠レイヤ
  6
CONTINUOUS
 62
     3
100
AcDbText
 10
345.5
 20
266.370542
 30
0.0
 40
3.6
  1
１
 41
0.84
  7
EXCADSTD
 72
     5
 11
348.38
 21
266.370542
 31
0.0
100
AcDbText
  0
TEXT
  5
7B9
100
AcDbEntity
  8
図面枠レイヤ
  6
CONTINUOUS
 62
     1
100
AcDbText
 10
352.7
 20
268.5
 30
0.0
 40
2.0
  1
ＳＴＰＧ３７０
 41
0.66
  7
EXCADSTD
 72
     5
 11
363.7
 21
268.5
 31
0.0
100
AcDbText
  0
TEXT
  5
7BA
100
AcDbEntity
  8
図面枠レイヤ
  6
CONTINUOUS
 62
     1
100
AcDbText
 10
352.7
 20
266.5
 30
0.0
 40
2.0
  1
　　　　　　　&ＳＳ４００
 41
0.62284
  7
EXCADSTD
 72
     5
 11
371.7
 21
266.5
 31
0.0
100
AcDbText
  0
TEXT
  5
7BB
100
AcDbEntity
  8
図面枠レイヤ
  6
CONTINUOUS
 62
     3
100
AcDbText
 10
372.4
 20
271.675126
 30
0.0
 40
3.6
  1
（同梱部品）
 41
0.84
  7
EXCADSTD
 72
     5
 11
393.999999
 21
271.675126
 31
0.0
100
AcDbText
  0
TEXT
  5
7BC
100
AcDbEntity
  8
図面枠レイヤ
  6
CONTINUOUS
 62
     3
100
AcDbText
 10
353.7
 20
272.375126
 30
0.0
 40
3.6
  1
紙
 41
0.84
  7
EXCADSTD
 72
     5
 11
356.58
 21
272.375126
 31
0.0
100
AcDbText
  0
TEXT
  5
7BD
100
AcDbEntity
  8
図面枠レイヤ
  6
CONTINUOUS
 62
     3
100
AcDbText
 10
305.4
 20
271.775126
 30
0.0
 40
3.6
  1
防水キャップ取り付け方用紙
 41
0.63359
  7
EXCADSTD
 72
     5
 11
340.699999
 21
271.775126
 31
0.0
100
AcDbText
  0
TEXT
  5
7BE
100
AcDbEntity
  8
図面枠レイヤ
  6
CONTINUOUS
 62
     3
100
AcDbText
 10
345.5
 20
271.875126
 30
0.0
 40
3.6
  1
１
 41
0.84
  7
EXCADSTD
 72
     5
 11
348.38
 21
271.875126
 31
0.0
100
AcDbText
  0
TEXT
  5
7BF
100
AcDbEntity
  8
図面枠レイヤ
  6
CONTINUOUS
 62
     3
100
AcDbText
 10
345.5
 20
256.875126
 30
0.0
 40
3.6
  1
８
 41
0.84
  7
EXCADSTD
 72
     5
 11
348.38
 21
256.875126
 31
0.0
100
AcDbText
  0
TEXT
  5
7C0
100
AcDbEntity
  8
図面枠レイヤ
  6
CONTINUOUS
 62
     3
100
AcDbText
 10
373.347678
 20
266.512035
 30
0.0
 40
3.6
  1
20AＸ20A
 41
0.77551
  7
EXCADSTD
 72
     5
 11
393.347678
 21
266.512035
 31
0.0
100
AcDbText
  0
TEXT
  5
7C1
100
AcDbEntity
  8
図面枠レイヤ
  6
CONTINUOUS
 62
     3
100
AcDbText
 10
373.347678
 20
261.512035
 30
0.0
 40
3.6
  1
20A
 41
0.694444
  7
EXCADSTD
 72
     5
 11
379.817928
 21
261.512035
 31
0.0
100
AcDbText
  0
TEXT
  5
7C2
100
AcDbEntity
  8
図面枠レイヤ
  6
CONTINUOUS
 62
     3
100
AcDbText
 10
308.52
 20
59.1
 30
0.0
 40
5.0
  1
ＧＭＦ－７０（面間３００ｍｍ）
 41
0.84
  7
EXCADSTD
 72
     5
 11
383.52
 21
59.1
 31
0.0
100
AcDbText
  0
TEXT
  5
7C3
100
AcDbEntity
  8
図面枠レイヤ
  6
CONTINUOUS
 62
     3
100
AcDbText
 10
307.38
 20
52.62
 30
0.0
 40
5.0
  1
二段式一次用調整器（ＧＭ－１６Ａ取替用）
 41
0.672
  7
EXCADSTD
 72
     5
 11
387.38
 21
52.62
 31
0.0
100
AcDbText
  0
TEXT
  5
7C4
100
AcDbEntity
  8
図面枠レイヤ
  6
CONTINUOUS
 62
     3
100
AcDbText
 10
357.82
 20
35.86
 30
0.0
 40
3.6
  1
ＧＭＦ－７０－Ｊ（取替）
 41
0.670147
  7
EXCADSTD
 72
     5
 11
392.284706
 21
35.86
 31
0.0
100
AcDbText
  0
TEXT
  5
7C5
100
AcDbEntity
  8
図面枠レイヤ
  6
CONTINUOUS
 62
     3
100
AcDbText
 10
302.5
 20
35.02
 30
0.0
 40
3.6
  1
'０３年５月１６日
 41
0.810123
  7
EXCADSTD
 72
     5
 11
333.099999
 21
35.02
 31
0.0
100
AcDbText
  0
TEXT
  5
7C6
100
AcDbEntity
  8
図面枠レイヤ
  6
CONTINUOUS
 62
     3
100
AcDbText
 10
297.8
 20
21.1
 30
0.0
 40
3.6
  1
フリー
 41
0.84
  7
EXCADSTD
 72
     5
 11
308.6
 21
21.1
 31
0.0
100
AcDbText
  0
INSERT
  5
7C7
100
AcDbEntity
  8
図面枠レイヤ
  6
CONTINUOUS
 62
     0
100
AcDbBlockReference
  2
山田
 10
376.2
 20
23.3
 30
0.0
  0
INSERT
  5
7C8
100
AcDbEntity
  8
図面枠レイヤ
  6
CONTINUOUS
 62
     0
100
AcDbBlockReference
  2
西野
 10
339.6
 20
23.4
 30
0.0
  0
INSERT
  5
7C9
100
AcDbEntity
  8
図面枠レイヤ
  6
CONTINUOUS
 62
     0
100
AcDbBlockReference
  2
技術課ＣＭ印
 10
357.9
 20
23.6
 30
0.0
  0
INSERT
  5
7CA
100
AcDbEntity
  8
図面枠レイヤ
  6
CONTINUOUS
 62
     0
100
AcDbBlockReference
  2
設計Ｌ印
 10
393.4
 20
23.3
 30
0.0
  0
TEXT
  5
7CB
100
AcDbEntity
  8
図面枠レイヤ
  6
CONTINUOUS
 62
     3
100
AcDbText
 10
373.347678
 20
256.512035
 30
0.0
 40
3.6
  1
並形 12
 41
0.91
  7
EXCADSTD
 72
     5
 11
390.847678
 21
256.512035
 31
0.0
100
AcDbText
  0
TEXT
  5
7CC
100
AcDbEntity
  8
図面枠レイヤ
  6
CONTINUOUS
 62
     3
100
AcDbText
 10
373.347678
 20
251.612035
 30
0.0
 40
3.6
  1
M12×50
 41
0.78858
  7
EXCADSTD
 72
     5
 11
390.847678
 21
251.612035
 31
0.0
100
AcDbText
  0
TEXT
  5
7CD
100
AcDbEntity
  8
図面枠レイヤ
  6
CONTINUOUS
 62
     3
100
AcDbText
 10
373.347678
 20
246.512035
 30
0.0
 40
3.6
  1
2号 12
 41
0.806667
  7
EXCADSTD
 72
     5
 11
388.347678
 21
246.512035
 31
0.0
100
AcDbText
  0
TEXT
  5
7CE
100
AcDbEntity
  8
図面枠レイヤ
  6
CONTINUOUS
 62
     3
100
AcDbText
 10
373.347678
 20
241.212035
 30
0.0
 40
3.6
  1
1種 M12
 41
0.78858
  7
EXCADSTD
 72
     5
 11
390.847678
 21
241.212035
 31
0.0
100
AcDbText
  0
TEXT
  5
7CF
100
AcDbEntity
  8
図面枠レイヤ
  6
CONTINUOUS
 62
     3
100
AcDbText
 10
373.19541
 20
231.504331
 30
0.0
 40
3.6
  1
３×６（認定品に限る）
 41
0.540909
  7
EXCADSTD
 72
     5
 11
398.69541
 21
231.504331
 31
0.0
100
AcDbText
  0
TEXT
  5
7D0
100
AcDbEntity
  8
図面枠レイヤ
  6
CONTINUOUS
 62
     3
100
AcDbText
 10
373.19541
 20
236.504331
 30
0.0
 40
3.6
  1
（認定品に限る）
 41
0.546875
  7
EXCADSTD
 72
     5
 11
391.94541
 21
236.504331
 31
0.0
100
AcDbText
  0
TEXT
  5
7D1
100
AcDbEntity
  8
図面枠レイヤ
  6
CONTINUOUS
 62
     3
100
AcDbText
 10
373.49929
 20
187.00511
 30
0.0
 40
3.6
  1
M8×35
 41
0.806667
  7
EXCADSTD
 72
     5
 11
388.49929
 21
187.00511
 31
0.0
100
AcDbText
  0
TEXT
  5
7D2
100
AcDbEntity
  8
図面枠レイヤ
  6
CONTINUOUS
 62
     3
100
AcDbText
 10
373.39929
 20
177.047524
 30
0.0
 40
3.6
  1
P42
 41
0.694444
  7
EXCADSTD
 72
     5
 11
379.86954
 21
177.047524
 31
0.0
100
AcDbText
  0
TEXT
  5
7D3
100
AcDbEntity
  8
図面枠レイヤ
  6
CONTINUOUS
 62
     3
100
AcDbText
 10
373.19929
 20
167.219731
 30
0.0
 40
3.6
  1
1種 M14
 41
0.78858
  7
EXCADSTD
 72
     5
 11
390.69929
 21
167.219731
 31
0.0
100
AcDbText
  0
TEXT
  5
7D4
100
AcDbEntity
  8
図面枠レイヤ
  6
CONTINUOUS
 62
     3
100
AcDbText
 10
373.29929
 20
121.873339
 30
0.0
 40
3.6
  1
P10A
 41
0.694444
  7
EXCADSTD
 72
     5
 11
382.46529
 21
121.873339
 31
0.0
100
AcDbText
  0
LINE
  5
7D5
100
AcDbEntity
  8
公差表レイヤ
  6
CONTINUOUS
 62
     4
100
AcDbLine
 10
96.0
 20
289.0
 30
0.0
 11
96.0
 21
255.0
 31
0.0
  0
LINE
  5
7D6
100
AcDbEntity
  8
公差表レイヤ
  6
CONTINUOUS
 62
     4
100
AcDbLine
 10
18.0
 20
255.0
 30
0.0
 11
96.0
 21
255.0
 31
0.0
  0
LINE
  5
7D7
100
AcDbEntity
  8
公差表レイヤ
  6
CONTINUOUS
 62
     4
100
AcDbLine
 10
51.5
 20
289.0
 30
0.0
 11
96.0
 21
289.0
 31
0.0
  0
LINE
  5
7D8
100
AcDbEntity
  8
公差表レイヤ
  6
CONTINUOUS
 62
     4
100
AcDbLine
 10
18.0
 20
276.0
 30
0.0
 11
96.0
 21
276.0
 31
0.0
  0
LINE
  5
7D9
100
AcDbEntity
  8
公差表レイヤ
  6
CONTINUOUS
 62
     4
100
AcDbLine
 10
51.5
 20
289.0
 30
0.0
 11
51.5
 21
255.0
 31
0.0
  0
LINE
  5
7DA
100
AcDbEntity
  8
公差表レイヤ
  6
CONTINUOUS
 62
     1
100
AcDbLine
 10
51.5
 20
284.0
 30
0.0
 11
96.0
 21
284.0
 31
0.0
  0
LINE
  5
7DB
100
AcDbEntity
  8
公差表レイヤ
  6
CONTINUOUS
 62
     1
100
AcDbLine
 10
66.5
 20
284.0
 30
0.0
 11
66.5
 21
255.0
 31
0.0
  0
LINE
  5
7DC
100
AcDbEntity
  8
公差表レイヤ
  6
CONTINUOUS
 62
     1
100
AcDbLine
 10
81.5
 20
284.0
 30
0.0
 11
81.5
 21
255.0
 31
0.0
  0
TEXT
  5
7DD
100
AcDbEntity
  8
公差表レイヤ
  6
CONTINUOUS
 62
     3
100
AcDbText
 10
58.8
 20
285.2
 30
0.0
 40
3.2
  1
寸法公差
 41
2.02125
  7
EXCADSTD
 72
     5
 11
89.6
 21
285.2
 31
0.0
100
AcDbText
  0
TEXT
  5
7DE
100
AcDbEntity
  8
公差表レイヤ
  6
CONTINUOUS
 62
     3
100
AcDbText
 10
21.7
 20
284.5
 30
0.0
 40
3.2
  1
呼ビ寸法の区分
 41
0.975
  7
EXCADSTD
 72
     5
 11
47.7
 21
284.5
 31
0.0
100
AcDbText
  0
TEXT
  5
7DF
100
AcDbEntity
  8
公差表レイヤ
  6
CONTINUOUS
 62
     3
100
AcDbText
 10
26.2
 20
278.4
 30
0.0
 40
3.2
  1
単位  ｍｍ
 41
0.744444
  7
EXCADSTD
 72
     5
 11
42.2
 21
278.4
 31
0.0
100
AcDbText
  0
TEXT
  5
7E0
100
AcDbEntity
  8
公差表レイヤ
  6
CONTINUOUS
 62
     3
100
AcDbText
 10
54.2
 20
280.1
 30
0.0
 40
3.2
  1
精  級
 41
0.69
  7
EXCADSTD
 72
     5
 11
63.8
 21
280.1
 31
0.0
100
AcDbText
  0
TEXT
  5
7E1
100
AcDbEntity
  8
公差表レイヤ
  6
CONTINUOUS
 62
     3
100
AcDbText
 10
54.2
 20
276.9
 30
0.0
 40
3.2
  1
  ±
 41
0.631111
  7
EXCADSTD
 72
     5
 11
60.06624
 21
276.9
 31
0.0
100
AcDbText
  0
TEXT
  5
7E2
100
AcDbEntity
  8
公差表レイヤ
  6
CONTINUOUS
 62
     3
100
AcDbText
 10
69.1
 20
280.1
 30
0.0
 40
3.2
  1
中  級
 41
0.69
  7
EXCADSTD
 72
     5
 11
78.7
 21
280.1
 31
0.0
100
AcDbText
  0
TEXT
  5
7E3
100
AcDbEntity
  8
公差表レイヤ
  6
CONTINUOUS
 62
     3
100
AcDbText
 10
69.1
 20
276.9
 30
0.0
 40
3.2
  1
  ±
 41
0.631111
  7
EXCADSTD
 72
     5
 11
74.96624
 21
276.9
 31
0.0
100
AcDbText
  0
TEXT
  5
7E4
100
AcDbEntity
  8
公差表レイヤ
  6
CONTINUOUS
 62
     3
100
AcDbText
 10
84.0
 20
280.1
 30
0.0
 40
3.2
  1
粗  級
 41
0.69
  7
EXCADSTD
 72
     5
 11
93.6
 21
280.1
 31
0.0
100
AcDbText
  0
TEXT
  5
7E5
100
AcDbEntity
  8
公差表レイヤ
  6
CONTINUOUS
 62
     3
100
AcDbText
 10
84.0
 20
276.9
 30
0.0
 40
3.2
  1
  ±
 41
0.631111
  7
EXCADSTD
 72
     5
 11
89.86624
 21
276.9
 31
0.0
100
AcDbText
  0
TEXT
  5
7E6
100
AcDbEntity
  8
公差表レイヤ
  6
CONTINUOUS
 62
     3
100
AcDbText
 10
52.7
 20
272.0
 30
0.0
 40
3.2
  1
０．０５
 41
0.84
  7
EXCADSTD
 72
     5
 11
65.5
 21
272.0
 31
0.0
100
AcDbText
  0
TEXT
  5
7E7
100
AcDbEntity
  8
公差表レイヤ
  6
CONTINUOUS
 62
     3
100
AcDbText
 10
52.7
 20
268.0
 30
0.0
 40
3.2
  1
０．０７
 41
0.84
  7
EXCADSTD
 72
     5
 11
65.5
 21
268.0
 31
0.0
100
AcDbText
  0
TEXT
  5
7E8
100
AcDbEntity
  8
公差表レイヤ
  6
CONTINUOUS
 62
     3
100
AcDbText
 10
52.7
 20
264.0
 30
0.0
 40
3.2
  1
０．１
 41
0.84
  7
EXCADSTD
 72
     5
 11
62.3
 21
264.0
 31
0.0
100
AcDbText
  0
TEXT
  5
7E9
100
AcDbEntity
  8
公差表レイヤ
  6
CONTINUOUS
 62
     3
100
AcDbText
 10
52.7
 20
260.0
 30
0.0
 40
3.2
  1
０．２
 41
0.84
  7
EXCADSTD
 72
     5
 11
62.3
 21
260.0
 31
0.0
100
AcDbText
  0
TEXT
  5
7EA
100
AcDbEntity
  8
公差表レイヤ
  6
CONTINUOUS
 62
     3
100
AcDbText
 10
52.7
 20
256.0
 30
0.0
 40
3.2
  1
０．３
 41
0.84
  7
EXCADSTD
 72
     5
 11
62.3
 21
256.0
 31
0.0
100
AcDbText
  0
TEXT
  5
7EB
100
AcDbEntity
  8
公差表レイヤ
  6
CONTINUOUS
 62
     3
100
AcDbText
 10
69.4
 20
271.9
 30
0.0
 40
3.2
  1
０．１
 41
0.84
  7
EXCADSTD
 72
     5
 11
79.0
 21
271.9
 31
0.0
100
AcDbText
  0
TEXT
  5
7EC
100
AcDbEntity
  8
公差表レイヤ
  6
CONTINUOUS
 62
     3
100
AcDbText
 10
69.4
 20
267.9
 30
0.0
 40
3.2
  1
０．２
 41
0.84
  7
EXCADSTD
 72
     5
 11
79.0
 21
267.9
 31
0.0
100
AcDbText
  0
TEXT
  5
7ED
100
AcDbEntity
  8
公差表レイヤ
  6
CONTINUOUS
 62
     3
100
AcDbText
 10
69.4
 20
263.9
 30
0.0
 40
3.2
  1
０．３
 41
0.84
  7
EXCADSTD
 72
     5
 11
79.0
 21
263.9
 31
0.0
100
AcDbText
  0
TEXT
  5
7EE
100
AcDbEntity
  8
公差表レイヤ
  6
CONTINUOUS
 62
     3
100
AcDbText
 10
69.4
 20
259.9
 30
0.0
 40
3.2
  1
０．５
 41
0.84
  7
EXCADSTD
 72
     5
 11
79.0
 21
259.9
 31
0.0
100
AcDbText
  0
TEXT
  5
7EF
100
AcDbEntity
  8
公差表レイヤ
  6
CONTINUOUS
 62
     3
100
AcDbText
 10
69.4
 20
255.9
 30
0.0
 40
3.2
  1
０．８
 41
0.84
  7
EXCADSTD
 72
     5
 11
79.0
 21
255.9
 31
0.0
100
AcDbText
  0
TEXT
  5
7F0
100
AcDbEntity
  8
公差表レイヤ
  6
CONTINUOUS
 62
     3
100
AcDbText
 10
84.0
 20
271.8
 30
0.0
 40
3.2
  1
０．３
 41
0.84
  7
EXCADSTD
 72
     5
 11
93.6
 21
271.8
 31
0.0
100
AcDbText
  0
TEXT
  5
7F1
100
AcDbEntity
  8
公差表レイヤ
  6
CONTINUOUS
 62
     3
100
AcDbText
 10
84.0
 20
267.8
 30
0.0
 40
3.2
  1
０．５
 41
0.84
  7
EXCADSTD
 72
     5
 11
93.6
 21
267.8
 31
0.0
100
AcDbText
  0
TEXT
  5
7F2
100
AcDbEntity
  8
公差表レイヤ
  6
CONTINUOUS
 62
     3
100
AcDbText
 10
84.0
 20
263.8
 30
0.0
 40
3.2
  1
０．７
 41
0.84
  7
EXCADSTD
 72
     5
 11
93.6
 21
263.8
 31
0.0
100
AcDbText
  0
TEXT
  5
7F3
100
AcDbEntity
  8
公差表レイヤ
  6
CONTINUOUS
 62
     3
100
AcDbText
 10
84.0
 20
259.8
 30
0.0
 40
3.2
  1
１．２
 41
0.84
  7
EXCADSTD
 72
     5
 11
93.6
 21
259.8
 31
0.0
100
AcDbText
  0
TEXT
  5
7F4
100
AcDbEntity
  8
公差表レイヤ
  6
CONTINUOUS
 62
     3
100
AcDbText
 10
84.0
 20
255.8
 30
0.0
 40
3.2
  1
２．０
 41
0.84
  7
EXCADSTD
 72
     5
 11
93.6
 21
255.8
 31
0.0
100
AcDbText
  0
TEXT
  5
7F5
100
AcDbEntity
  8
公差表レイヤ
  6
CONTINUOUS
 62
     3
100
AcDbText
 10
18.7
 20
271.9
 30
0.0
 40
3.2
  1
                  ４以下
 41
0.471122
  7
EXCADSTD
 72
     5
 11
51.100001
 21
271.9
 31
0.0
100
AcDbText
  0
TEXT
  5
7F6
100
AcDbEntity
  8
公差表レイヤ
  6
CONTINUOUS
 62
     3
100
AcDbText
 10
18.7
 20
267.9
 30
0.0
 40
3.2
  1
    ４を超え    １６以下
 41
0.582188
  7
EXCADSTD
 72
     5
 11
51.100001
 21
267.9
 31
0.0
100
AcDbText
  0
TEXT
  5
7F7
100
AcDbEntity
  8
公差表レイヤ
  6
CONTINUOUS
 62
     3
100
AcDbText
 10
18.7
 20
263.9
 30
0.0
 40
3.2
  1
  １６を超え    ６３以下
 41
0.6102
  7
EXCADSTD
 72
     5
 11
51.100001
 21
263.9
 31
0.0
100
AcDbText
  0
TEXT
  5
7F8
100
AcDbEntity
  8
公差表レイヤ
  6
CONTINUOUS
 62
     3
100
AcDbText
 10
18.7
 20
259.9
 30
0.0
 40
3.2
  1
  ６３を超え  ２５０以下
 41
0.640561
  7
EXCADSTD
 72
     5
 11
51.100001
 21
259.9
 31
0.0
100
AcDbText
  0
TEXT
  5
7F9
100
AcDbEntity
  8
公差表レイヤ
  6
CONTINUOUS
 62
     3
100
AcDbText
 10
18.7
 20
255.9
 30
0.0
 40
3.2
  1
２５０を超え１０００以下
 41
0.70875
  7
EXCADSTD
 72
     5
 11
51.100001
 21
255.9
 31
0.0
100
AcDbText
  0
TEXT
  5
7FA
100
AcDbEntity
  8
訂正欄レイヤ
  6
CONTINUOUS
 62
     3
100
AcDbText
 10
19.8
 20
283.6
 30
0.0
 40
4.0
  1
符号
 41
0.672
  7
EXCADSTD
 72
     5
 11
25.66624
 21
283.6
 31
0.0
100
AcDbText
  0
TEXT
  5
7FB
100
AcDbEntity
  8
訂正欄レイヤ
  6
CONTINUOUS
 62
     3
100
AcDbText
 10
121.1
 20
283.5
 30
0.0
 40
4.0
  1
印
 41
0.672
  7
EXCADSTD
 72
     5
 11
123.66
 21
283.5
 31
0.0
100
AcDbText
  0
TEXT
  5
7FC
100
AcDbEntity
  8
訂正欄レイヤ
  6
CONTINUOUS
 62
     3
100
AcDbText
 10
32.3
 20
283.5
 30
0.0
 40
4.0
  1
年  月  日
 41
0.532245
  7
EXCADSTD
 72
     5
 11
48.3
 21
283.5
 31
0.0
100
AcDbText
  0
TEXT
  5
7FD
100
AcDbEntity
  8
訂正欄レイヤ
  6
CONTINUOUS
 62
     3
100
AcDbText
 10
60.5
 20
283.8
 30
0.0
 40
4.0
  1
訂        正        記        事
 41
0.446694
  7
EXCADSTD
 72
     5
 11
111.700001
 21
283.8
 31
0.0
100
AcDbText
  0
POLYLINE
  5
7FE
100
AcDbEntity
  8
訂正欄レイヤ
  6
CONTINUOUS
 62
     4
100
AcDb2dPolyline
 66
     1
 10
0.0
 20
0.0
 30
0.0
 70
   128
  0
VERTEX
  5
7FF
100
AcDbEntity
  8
訂正欄レイヤ
  6
CONTINUOUS
 62
     4
100
AcDbVertex
100
AcDb2dVertex
 10
18.0
 20
289.0
 30
0.0
  0
VERTEX
  5
800
100
AcDbEntity
  8
訂正欄レイヤ
  6
CONTINUOUS
 62
     4
100
AcDbVertex
100
AcDb2dVertex
 10
128.0
 20
289.0
 30
0.0
  0
VERTEX
  5
801
100
AcDbEntity
  8
訂正欄レイヤ
  6
CONTINUOUS
 62
     4
100
AcDbVertex
100
AcDb2dVertex
 10
128.0
 20
255.0
 30
0.0
  0
VERTEX
  5
802
100
AcDbEntity
  8
訂正欄レイヤ
  6
CONTINUOUS
 62
     4
100
AcDbVertex
100
AcDb2dVertex
 10
18.0
 20
255.0
 30
0.0
  0
VERTEX
  5
803
100
AcDbEntity
  8
訂正欄レイヤ
  6
CONTINUOUS
 62
     4
100
AcDbVertex
100
AcDb2dVertex
 10
18.0
 20
289.0
 30
0.0
  0
SEQEND
  5
804
100
AcDbEntity
  8
訂正欄レイヤ
  6
CONTINUOUS
 62
     4
  0
LINE
  5
805
100
AcDbEntity
  8
訂正欄レイヤ
  6
CONTINUOUS
 62
     1
100
AcDbLine
 10
18.0
 20
282.2
 30
0.0
 11
128.0
 21
282.2
 31
0.0
  0
LINE
  5
806
100
AcDbEntity
  8
訂正欄レイヤ
  6
CONTINUOUS
 62
     1
100
AcDbLine
 10
128.0
 20
275.4
 30
0.0
 11
18.0
 21
275.4
 31
0.0
  0
LINE
  5
807
100
AcDbEntity
  8
訂正欄レイヤ
  6
CONTINUOUS
 62
     1
100
AcDbLine
 10
18.0
 20
268.6
 30
0.0
 11
128.0
 21
268.6
 31
0.0
  0
LINE
  5
808
100
AcDbEntity
  8
訂正欄レイヤ
  6
CONTINUOUS
 62
     1
100
AcDbLine
 10
128.0
 20
261.8
 30
0.0
 11
18.0
 21
261.8
 31
0.0
  0
LINE
  5
809
100
AcDbEntity
  8
訂正欄レイヤ
  6
CONTINUOUS
 62
     1
100
AcDbLine
 10
118.0
 20
289.0
 30
0.0
 11
118.0
 21
255.0
 31
0.0
  0
LINE
  5
80A
100
AcDbEntity
  8
訂正欄レイヤ
  6
CONTINUOUS
 62
     1
100
AcDbLine
 10
52.0
 20
289.0
 30
0.0
 11
52.0
 21
255.0
 31
0.0
  0
LINE
  5
80B
100
AcDbEntity
  8
訂正欄レイヤ
  6
CONTINUOUS
 62
     1
100
AcDbLine
 10
28.0
 20
289.0
 30
0.0
 11
28.0
 21
255.0
 31
0.0
  0
ENDSEC
  0
SECTION
  2
OBJECTS
  0
DICTIONARY
  5
19
100
AcDbDictionary
  3
ACAD_GROUP
350
1A
  3
ACAD_MLINESTYLE
350
1B
  0
DICTIONARY
  5
1A
102
{ACAD_REACTORS
330
19
102
}
100
AcDbDictionary
  0
DICTIONARY
  5
1B
102
{ACAD_REACTORS
330
19
102
}
100
AcDbDictionary
  3
STANDARD
350
1C
  0
MLINESTYLE
  5
1C
102
{ACAD_REACTORS
330
1B
102
}
100
AcDbMlineStyle
  2
Standard
 70
     0
  3

 62
     0
 51
90.0
 52
90.0
 71
     2
 49
0.5
 62
   256
  6
ByLayer
 49
-0.5
 62
   256
  6
ByLayer
  0
ENDSEC
  0
EOF
